Misc - From Usd Skate Video Chords & Tabs

 

From Usd Skate Video Chords & Tabs

Misc Chords & Tabs

Version: 1 Type: Tab 0 ratings
1 star 2 stars 3 stars 4 stars 5 stars
comments

From Usd Skate Video Tab

e------------0---------------------
g---------1----1-------------x4--
f-------2---------2----------------
d----2--------------2-------------
a--0-------------------------------                
E----------------------------------
[ Tab from: http://www.guitartabs.cc/tabs/m/misc/from_usd_skate_video_tab.html ]
e----------0---------------------0--------------------0-------------------0----------------
g-------1----1----------------1----1---------------1----1-------------1----1-------------
f-----2---------2---2------2---------2----2-----2---------2---2----2--------2---2-------
d--2--------------2-----3---------------3-----4--------------4----3------------3----------
a---------------------------------------------------------------------------------------------
E---------------------------------------------------------------------------------------------
Comments