Misc - Fingerpicking Chords & Tabs

 

Fingerpicking Chords & Tabs

Misc Chords & Tabs

Version: 1 Type: Tab 0 ratings
1 star 2 stars 3 stars 4 stars 5 stars
comments

Fingerpicking Tab

         This is just an easy fingerpicking song I have more.


e--3-----3-|--7----7-|-12----12-|-10--|--
b----0-----|----0----|----0-----|-----|--
g------0---|------0--|------0---|-----|--  PAUSE
a--2-------|--5------|-10-------|--9--|--
d----------|---------|----------|-----|--
E----------|---------|----------|-----|--
[ Tab from: http://www.guitartabs.cc/tabs/m/misc/fingerpicking_tab.html ]
e--8----8-|-7-----|-5---7-5-|-3---5-3-|-2---3-2-|-0--------|--
b----0----|---0---|---0-----|---0-----|---0-----|---1------|--
g------0--|-----0-|---------|---------|---------|-----0----|--
a--7------|-5-----|-4-------|-2-------|-0-------|-------2--|--
d---------|-------|---------|---------|---------|-3--------|--
E---------|-------|---------|---------|---------|----------|--

           Then a -3- and then a -3- both of these are chords.
                  -4-            -3- 
                  -5-            -0-
                  -5-            -0-
                  -X-            -2-
                  -X-            -3-

  Tabbed by Kurt Angel -AKA- Biscuit_Bandit

E-mail me at biscuit_bandit@hotmail.com
Comments