Misc - Fearless Chords & Tabs

 

Fearless Chords & Tabs

Misc Chords & Tabs

Version: 1 Type: Tab 0 ratings
1 star 2 stars 3 stars 4 stars 5 stars
comments

Fearless Tab

Guitar 1 starts: play 1 time alone...

E |-----------------------------------------------------------------------| 
B |-----------------------------------------------------------------------| 
G |-----------------------------------------------------------------------| repeat
D |----2---2----2---2----5---5---5---5---7---7---7---7----5---5----5---5--| 4 times
A |------2--------2--------3-------3-------5-------5--------3--------3----| 
E |--0--------0--------0-------0-------0-------0--------0--------0--------| 

Second time Guitar 2 comes in...
E |-----------------------------------------------------------------------|
B |-----------------------------------------------------------------------|
G |-----------------------------------------------------------------------| repeat
D |---2---2--------------5---5------------7---7-----------5---5-----------| 2 times
A |-----2------------------3----------------5---------------3-------------|
E |-----------------------------------------------------------------------|

Guitar 2:
E |---------------------------------------------------------------------|
B |---------------------------------------------------------------------|
G |---------------------------------------------------------------------| repeat 
D |---2--2--------------5--5---------------7--7-------------5--5--------| 5 times
A |---2--2--------------3--3---------------5--5-------------3--3--------|
E |---------------------------------------------------------------------|

When Guitar 2 played that 1 time alone, Guitar 1 comes in with this:
E |---0--0--------------3--3---------------5--5-------------3--3--------|
B |---0--0--------------3--3---------------5--5-------------3--3--------|
G |---0--0--------------3--3---------------5--5-------------3--3--------| repeat
D |---2--2--------------5--5---------------7--7-------------5--5--------| 2 times
A |---2--2--------------5--5---------------7--7-------------5--5--------|
E |---0--0--------------3--3---------------5--5-------------3--3--------|

Guitar 1
E |---0--0---x--x--x----3--3----x--x--x----5--5---x--x--x---3--3---x--x--x-|
B |---0--0---x--x--x----3--3----x--x--x----5--5---x--x--x---3--3---x--x--x-|
G |---0--0---x--x--x----3--3----x--x--x----5--5---x--x--x---3--3---x--x--x-| repeat
D |---2--2---x--x--x----5--5----x--x--x----7--7---x--x--x---5--5---x--x--x-| 2
A |---2--2---x--x--x----5--5----x--x--x----7--7---x--x--x---5--5---x--x--x-| times
E |---0--0---x--x--x----3--3----x--x--x----5--5---x--x--x---3--3---x--x--x-|

When solo 1 Guitar 2 starts, Guitar 1 plays 3 times soft on background:
E |---0--0--------------3--3---------------5--5-------------3--3--------|
B |---0--0--------------3--3---------------5--5-------------3--3--------|
G |---0--0--------------3--3---------------5--5-------------3--3--------| repeat
D |---2--2--------------5--5---------------7--7-------------5--5--------| 3 times 
A |---2--2--------------5--5---------------7--7-------------5--5--------|
E |---0--0--------------3--3---------------5--5-------------3--3--------|

Solo 1 Guitar 2:
E |---------------------------------------------------------|
B |---------------------------------------------------------|
G |---------------------------------------------------------|
D |-----------2--3--5--3--5--7--5--7--5--3--2---------------|
A |--2--3--5-----------------------------------3--5--3------|
E |---------------------------------------------------------| 

Guitar 1 :
E |---0--0---x--x--x----3--3----x--x--x----5--5---x--x--x---3--3---x--x--x-|
B |---0--0---x--x--x----3--3----x--x--x----5--5---x--x--x---3--3---x--x--x-|
G |---0--0---x--x--x----3--3----x--x--x----5--5---x--x--x---3--3---x--x--x-| repeat
D |---2--2---x--x--x----5--5----x--x--x----7--7---x--x--x---5--5---x--x--x-| 2
A |---2--2---x--x--x----5--5----x--x--x----7--7---x--x--x---5--5---x--x--x-| times
E |---0--0---x--x--x----3--3----x--x--x----5--5---x--x--x---3--3---x--x--x-|

Guitar 2:
E |---------------------------------------------------------------------|
B |---------------------------------------------------------------------|
G |---------------------------------------------------------------------| repeat 
D |---2--2--------------5--5---------------7--7-------------5--5--------| 2 times
A |---2--2--------------3--3---------------5--5-------------3--3--------|
E |---------------------------------------------------------------------|

Guitar 2 plays soft on background when solo 1 Guitar 1 starts:
E |---------------------------------------------------------------------|
B |---------------------------------------------------------------------|
G |---------------------------------------------------------------------| repeat 
D |---2--2--------------5--5---------------7--7-------------5--5--------| 3 times
A |---2--2--------------3--3---------------5--5-------------3--3--------|
E |---------------------------------------------------------------------|

Solo 1 Guitar 1:
E |-----------------------------------------------------------------------|
B |-----------------------------------------------------------------------|
G |-----0--2-0-2-0-2-0-2--------------------------------------------------|
D |-2-2---2-2-2-2-2-2-2-2-0--------------------------------2--------------|
A |---------------------------2-0-------------2----------2---2------------|
E |---------------------------------3-0---0-3---3-0--0-3-------3--0-------|

Guitar 1:
E |---0--0---x--x--x----3--3----x--x--x----5--5---x--x--x---3--3---x--x--x-|
B |---0--0---x--x--x----3--3----x--x--x----5--5---x--x--x---3--3---x--x--x-|
G |---0--0---x--x--x----3--3----x--x--x----5--5---x--x--x---3--3---x--x--x-| repeat
D |---2--2---x--x--x----5--5----x--x--x----7--7---x--x--x---5--5---x--x--x-| 3
A |---2--2---x--x--x----5--5----x--x--x----7--7---x--x--x---5--5---x--x--x-| times
E |---0--0---x--x--x----3--3----x--x--x----5--5---x--x--x---3--3---x--x--x-|

Guitar 2:
E |---------------------------------------------------------------------|
B |---------------------------------------------------------------------|
G |---------------------------------------------------------------------| repeat 
D |---2--2--------------5--5---------------7--7-------------5--5--------| 2 times
A |---2--2--------------3--3---------------5--5-------------3--3--------|
E |---------------------------------------------------------------------|

Guitar 2:
E |------------------------------------------------------------------------|
B |------------------------------------------------------------------------| 
G |------------------------------------------------------------------------| 1
D |------------------------------------------------------------------------| time
A |------------------------------------------------------------------------|
E |------------------------------------------------------------------------|

Guitar 1, soft on the background when solo 2 from Guitar 2 starts:
E |---0--0--------------3--3---------------5--5-------------3--3--------|
B |---0--0--------------3--3---------------5--5-------------3--3--------|
G |---0--0--------------3--3---------------5--5-------------3--3--------| repeat
D |---2--2--------------5--5---------------7--7-------------5--5--------| 6 times 
A |---2--2--------------5--5---------------7--7-------------5--5--------|
E |---0--0--------------3--3---------------5--5-------------3--3--------|

Solo 2 Guitar 2:
E |-------------------------------------7-5-7--9-7-9--12-10-12------------|
B |-------------------------------7-5-7------------------------12-10-12---|
G |-------------------------7-5-7-----------------------------------------|
D |-------2-3-5-3-5--7-5-7------------------------------------------------|
A |-2-3-5-----------------------------------------------------------------|
E |-----------------------------------------------------------------------|

E |----------------------------------------------------------------------------|
B |----------------------------------------------------------------------------|
G |-12-9-12--------------------------------------------------------------------|
D |----------12-9-12-----------------------------------------------------------|
A |-------------------12-10-12-------------------------------------------------|
E |----------------------------12-10-12---10-9-10---8-7-8---4-3-4---0----------|

Guitar 1:
E |---0--0---x--x--x----3--3----x--x--x----5--5---x--x--x---3--3---x--x--x-|
B |---0--0---x--x--x----3--3----x--x--x----5--5---x--x--x---3--3---x--x--x-|
G |---0--0---x--x--x----3--3----x--x--x----5--5---x--x--x---3--3---x--x--x-| repeat
D |---2--2---x--x--x----5--5----x--x--x----7--7---x--x--x---5--5---x--x--x-| 2
A |---2--2---x--x--x----5--5----x--x--x----7--7---x--x--x---5--5---x--x--x-| times
E |---0--0---x--x--x----3--3----x--x--x----5--5---x--x--x---3--3---x--x--x-|

Guitar 2:
E |---------------------------------------------------------------------|
B |---------------------------------------------------------------------|
G |---------------------------------------------------------------------| repeat 
D |---2--2--------------5--5---------------7--7-------------5--5--------| 2 times
A |---2--2--------------3--3---------------5--5-------------3--3--------|
E |---------------------------------------------------------------------|

Guitar 2, soft on the background when solo 2 from guitar 1 starts:
E |---------------------------------------------------------------------|
B |---------------------------------------------------------------------|
G |---------------------------------------------------------------------| repeat 
D |---2--2--------------5--5---------------7--7-------------5--5--------| ...times
A |---2--2--------------3--3---------------5--5-------------3--3--------|
E |---------------------------------------------------------------------|

Solo 2 Guitar 1:
E |------------------------------0-3-5-3-0---0-------0-3-5-7-10-12-|
B |--------------------------0-3-----------3---3-0-3---------------| 
G |-----0--2-0-2-0-2-0-2-0-2---------------------------------------|
D |-2-2---2-2-2-2-2-2-2-2-2----------------------------------------|
A |----------------------------------------------------------------|
E |----------------------------------------------------------------|

E |-12-12-12-12-12-12-12-12-12--12-9---------------12-9-12-12-9------------|
B |----------------------------------12-9------------------------12-9-12---| 
G |---------------------------------------12-11-9--------------------------|
D |------------------------------------------------------------------------|
A |------------------------------------------------------------------------|
E |------------------------------------------------------------------------|

E |----------------------------------------12-10--------------------------------|
B |-12-9----------------------------------------12-10---------------------------| 
G |------12-11-9--9--12-9----------------------------12-9-----------------------|
D |-------------12-------12-9----------------------------12-9-------------------|
A |--------------------------12-10---------------------------12-10--------------|
E |-------------------------------12-10-12------------------------12-10-7-5-3-0-|
[ Tab from: http://www.guitartabs.cc/tabs/m/misc/fearless_tab.html ]
Guitar 1:
E |---0--0---x--x--x----3--3----x--x--x----5--5---x--x--x---3--3---x--x--x-|
B |---0--0---x--x--x----3--3----x--x--x----5--5---x--x--x---3--3---x--x--x-|
G |---0--0---x--x--x----3--3----x--x--x----5--5---x--x--x---3--3---x--x--x-| repeat
D |---2--2---x--x--x----5--5----x--x--x----7--7---x--x--x---5--5---x--x--x-| 2
A |---2--2---x--x--x----5--5----x--x--x----7--7---x--x--x---5--5---x--x--x-| times
E |---0--0---x--x--x----3--3----x--x--x----5--5---x--x--x---3--3---x--x--x-|

Guitar 2:
E |---------------------------------------------------------------------|
B |---------------------------------------------------------------------|
G |---------------------------------------------------------------------| repeat 
D |---2--2--------------5--5---------------7--7-------------5--5--------| 2 times
A |---2--2--------------3--3---------------5--5-------------3--3--------|
E |---------------------------------------------------------------------|

Guitar 1:
E |-x-x-x-x-x-x-x-x-x-x-x-x--x-x-x-x-x-x-x-x-x-x-x-x--|
B |-x-x-x-x-x-x-x-x-x-x-x-x--x-x-x-x-x-x-x-x-x-x-x-x--|
G |-x-x-x-x-x-x-x-x-x-x-x-x--x-x-x-x-x-x-x-x-x-x-x-x--|
D |-2-2-2-2-2-2-2-2-2-2-2-2--5-5-5-5-5-5-5-5-5-5-5-5--|
A |-2-2-2-2-2-2-2-2-2-2-2-2--5-5-5-5-5-5-5-5-5-5-5-5--|
E |-0-0-0-0-0-0-0-0-0-0-0-0--3-3-3-3-3-3-3-3-3-3-3-3--|

E |-x-x-x-x-x-x-x-x-x-x-x-x--x-x-x-x-x-x-x-x-x-x-x-x--|
B |-x-x-x-x-x-x-x-x-x-x-x-x--x-x-x-x-x-x-x-x-x-x-x-x--|
G |-x-x-x-x-x-x-x-x-x-x-x-x--x-x-x-x-x-x-x-x-x-x-x-x--|
D |-7-7-7-7-7-7-7-7-7-7-7-7--5-5-5-5-5-5-5-5-5-5-5-5--|
A |-7-7-7-7-7-7-7-7-7-7-7-7--5-5-5-5-5-5-5-5-5-5-5-5--|
E |-5-5-5-5-5-5-5-5-5-5-5-5--3-3-3-3-3-3-3-3-3-3-3-3--|

Guitar 2:
E |---------------------------------------------------------------------|
B |---------------------------------------------------------------------|
G |---------------------------------------------------------------------| repeat 
D |---2--2--------------5--5---------------7--7-------------5--5--------| 6 times
A |---2--2--------------3--3---------------5--5-------------3--3--------|
E |---------------------------------------------------------------------|

Guitar 1:
E |---x--x--------------x--x---------------x--x-------------x--x--------|
B |---x--x--------------x--x---------------x--x-------------x--x--------|
G |---x--x--------------x--x---------------x--x-------------x--x--------| repeat
D |---2--2--------------5--5---------------7--7-------------5--5--------| 2 times
A |---2--2--------------5--5---------------7--7-------------5--5--------|
E |---0--0--------------3--3---------------5--5-------------3--3--------|

Guitar 1:
E |---x--x--------------x--x---------------x--x-------------x--x--------|
B |---x--x--------------x--x---------------x--x-------------x--x--------|
G |---x--x--------------x--x---------------x--x-------------x--x--------|
D |---2--2--------------5--5---------------7--7-------------5--5--------|
A |---2--2--------------5--5---------------7--7-------------5--5--------|
E |---0--0--------------3--3---------------5--5-------------3--3--------|

Guitar 2
E |---------------------------------------------------------------------|
B |---------------------------------------------------------------------|
G |---------------------------------------------------------------------| 
D |---2--2--------------5--5---------------7--7-------------10--10------|
A |---2--2--------------3--3---------------5--5-------------10--10------|
E |---------------------------------------------------------------------|

Guitar 1:
E |---x--x--------------x--x---------------x--x-------------x--x--------|
B |---x--x--------------x--x---------------x--x-------------x--x--------|
G |---x--x--------------x--x---------------x--x-------------x--x--------|
D |---2--2--------------5--5---------------7--7-------------10-10-------|
A |---2--2--------------5--5---------------7--7-------------10-10-------|
E |---0--0--------------3--3---------------5--5-------------8--8--------|

Guitar 2:
E |---------------------------------------------------------------------|
B |---------------------------------------------------------------------|
G |---------------------------------------------------------------------| 
D |---2--2--------------5--5---------------7--7-------------5--5--------|
A |---2--2--------------3--3---------------5--5-------------3--3--------|
E |---------------------------------------------------------------------|

Guitar 1:
E |---x--x--------------x--x---------------x--x-------------x--x--------|
B |---x--x--------------x--x---------------x--x-------------x--x--------|
G |---x--x--------------x--x---------------x--x-------------x--x--------|
D |---2--2--------------5--5---------------7--7-------------5--5--------|
A |---2--2--------------5--5---------------7--7-------------5--5--------|
E |---0--0--------------3--3---------------5--5-------------3--3--------|

Guitar 2
E |---------------------------------------------------------------------|
B |---------------------------------------------------------------------|
G |---------------------------------------------------------------------| 
D |---2--2--------------5--5---------------7--7-------------10--10------|
A |---2--2--------------3--3---------------5--5-------------10--10------|
E |---------------------------------------------------------------------|

Guitar 1:
E |---x--x--------------x--x---------------x--x-------------x--x--------|
B |---x--x--------------x--x---------------x--x-------------x--x--------|
G |---x--x--------------x--x---------------x--x-------------x--x--------|
D |---2--2--------------5--5---------------7--7-------------10-10-------|
A |---2--2--------------5--5---------------7--7-------------10-10-------|
E |---0--0--------------3--3---------------5--5-------------8--8--------|

Guitar 2:
E |---------------------------------------------------------------------|
B |---------------------------------------------------------------------|
G |---------------------------------------------------------------------| 
D |---2--2--------------5--5---------------7--7-------------5--5--------|
A |---2--2--------------3--3---------------5--5-------------3--3--------|
E |---------------------------------------------------------------------|

Guitar 1, soft on the background when solo 3 from guitar 2 starts:
E |-----0----------------3-------------------5-----------------3--------|
B |-----0----------------3-------------------5-----------------3--------| 
G |-----0----------------3-------------------5-----------------3--------| repeat
D |--2----------------5------------------7-----------------5------------| 7 times
A |--2----------------5------------------7-----------------5------------|
E |--0----------------3------------------5-----------------3------------|

Solo 3, Guitar 2:
E |-0-0--R--3-3--R--5-5--R--3-3--R---|
B |----------------------------------| 
G |----------------------------------| R = litte break (few seconds)
D |----------------------------------| repeat 2 times
A |----------------------------------|
E |----------------------------------|

E |-0-0---3-3---5-5---3-3---0-0---3-3---5-5---7-7--5-7--5-3-5--1-3-0--|
B |-------------------------------------------------------------------| 
G |-------------------------------------------------------------------|
D |-------------------------------------------------------------------|
A |-------------------------------------------------------------------|
E |-------------------------------------------------------------------|

Guitar 2:
E |---------------------------------------------------------------------|
B |---------------------------------------------------------------------|
G |---------------------------------------------------------------------| repeat
D |---2--2--------------5--5---------------7--7-------------5--5--------| 2 times
A |---2--2--------------3--3---------------5--5-------------3--3--------|
E |---------------------------------------------------------------------|

Guitar 1:
E |---x--x--------------x--x---------------x--x-------------x--x--------|
B |---x--x--------------x--x---------------x--x-------------x--x--------|
G |---x--x--------------x--x---------------x--x-------------x--x--------| repeat 
D |---2--2--------------5--5---------------7--7-------------5--5--------| 2 times
A |---2--2--------------5--5---------------7--7-------------5--5--------|
E |---0--0--------------3--3---------------5--5-------------3--3--------|

Guitar 2, soft on the background when solo 3 from guitar 2 starts:
E |---0--0-----x--x-----x--x-----x--x----|
B |---0--0-----x--x-----x--x-----x--x----| 
G |---0--0-----x--x-----x--x-----x--x----| repeat 
D |---2--2-----5--5-----7--7-----5--5----| 7 times
A |---2--2-----5--5-----7--7-----5--5----|
E |---0--0-----3--3-----5--5-----3--3----|

Solo 3, Guitar 1:
E |-0-0--R--3-3--R--5-5--R--3-3--R--|
B |-0-0--R--3-3--R--5-5--R--3-3--R--| R = little break (few seconds)
G |---------------------------------| 
D |---------------------------------| repeat
A |---------------------------------| 2 times
E |---------------------------------|

E |-0-0--7-7--5-5--3-3--0-0-------0-0-------0-0-------0-0-------0-0---|
B |-0-0--7-7--5-5--3-3--0-0--3-3--0-0--3-3--0-0--3-3--0-0--3-3--0-0---| 
G |--------------------------3-3-------3-3-------3-3-------3-3--------|
D |-------------------------------------------------------------------|
A |-------------------------------------------------------------------|
E |-------------------------------------------------------------------|

E |-3-3--0-0-------0-0--3-3--0-0-------0-0-----5------3------0--|
B |-3-3--0-0--3-3--0-0--3-3--0-0--3-3--0-0-----5------3------0--| 
G |-----------3-3-----------------3-3---------------------------|
D |-------------------------------------------------------------|
A |-------------------------------------------------------------|
E |-------------------------------------------------------------|

Guitar 1:
E |---x--x--------------x--x---------------x--x-------------x--x--------|
B |---x--x--------------x--x---------------x--x-------------x--x--------|
G |---x--x--------------x--x---------------x--x-------------x--x--------| repeat 
D |---2--2--------------5--5---------------7--7-------------5--5--------| 2 times
A |---2--2--------------5--5---------------7--7-------------5--5--------|
E |---0--0--------------3--3---------------5--5-------------3--3--------|

Guitar 2:
E |---------------------------------------------------------------------|
B |---------------------------------------------------------------------|
G |---------------------------------------------------------------------| repeat
D |---2--2--------------5--5---------------7--7-------------5--5--------| 2 times
A |---2--2--------------3--3---------------5--5-------------3--3--------|
E |---------------------------------------------------------------------|

E |-------------------------------------------------------------------|
B |-------------------------------------------------------------------| 
G |-------------------------------------------------------------------|
D |-------------------------------------------------------------------|
A |-------------------------------------------------------------------|
E |-------------------------------------------------------------------|

Guitar 1:
E |-x--x--x--x--x----|
B |-x--x--x--x--x----| 
G |-x--x--x--x--x----|
D |-2--5--7--5--2----|
A |-2--5--7--5--2----|
E |-0--3--5--3--0----|
Guitar 2:
E |------------------|
B |------------------| 
G |------------------|
D |------------------|
A |------------------|
E |--7--5--3--0------|

Guitar 1 and 2 at the same time:
E |--0----------------|
B |--0----------------| 
G |--0----------------|
D |--2----------------|
A |--2----------------|
E |--0----------------|
Comments