Misc - Fear Hate Love Never Finish Chords & Tabs

 

Fear Hate Love Never Finish Chords & Tabs

Misc Chords & Tabs

Version: 1 Type: Tab 0 ratings
1 star 2 stars 3 stars 4 stars 5 stars
comments

Fear Hate Love Never Finish Tab

Contact me if you have any guestions or coments...
AIM - BLINDedByDARKnss
e-mail - GhostOfMourningSpirits@Musician.Org 

 = Slide Down
X = Dead Note
M = Mute 
Normal Tuning
Gain - 80%
Treble - 100%
Bass - 100%
	
	~Fear, Hate, Love, Never Finish...~


~InTrO~
E-|-18-------13-------7-------3-------0
A-|-16-------11-------5-------1-------0
D-|-----------------------------------0
G-|-----------------------------------0
B-|-----------------------------------0
E-|-----------------------------------0


~VeRsE~
E-|------------------------------------------
A-|------------------------------------------
D-|------------------------------------------               2X
G-|------------------------------------------
B-|------------------------------------------
E-|--------------0-0-0-1m--0-0-0-3m--0-0-0-2m


~ChOrUs~
E-|-0-0-0--0-0-0--1-3-2
A-|-0-0-0--0-0-0--1-3-2
D-|-0-0-0--6-6-6--X-X-X                2X
G-|-0-0-0--4-4-4--1-3-2
B-|-0-0-0--5-5-5--1-3-2
E-|-0-0-0--0-0-0--1-3-2


~VeRsE~
E-|------------------------------------------
A-|------------------------------------------
D-|------------------------------------------               2X
G-|------------------------------------------
B-|------------------------------------------
E-|--------------0-0-0-1m--0-0-0-3m--0-0-0-2m

[ Tab from: http://www.guitartabs.cc/tabs/m/misc/fear_hate_love_never_finish_tab.html ]
~ChOrUs~
E-|-0-0-0--0-0-0--1-3-2
A-|-0-0-0--0-0-0--1-3-2
D-|-0-0-0--6-6-6--X-X-X                2X
G-|-0-0-0--4-4-4--1-3-2
B-|-0-0-0--5-5-5--1-3-2
E-|-0-0-0--0-0-0--1-3-2


~BrIdGe~
E-|-------------------------------------------------------------
A-|-------------------------------------------------------------
D-|-------------------------------------------------------------
G-|-------------------------------------------------------------
B-|-------------------------------------------------------------
E-|-0-12M--0-8M--0-4M--0-0-12M--0-0-8M--0-0-4M



E-|--------------0
A-|--------------0
D-|--------------0
G-|--------------0
B-|--------------0
E-|-0-0-1M---0

~InTrO~
E-|-18-------13-------7-------3-------0
A-|-16-------11-------5-------1-------0
D-|-----------------------------------0
G-|-----------------------------------0
B-|-----------------------------------0
E-|-----------------------------------0


~ChOrUs~
E-|-0-0-0--0-0-0--1-3-2
A-|-0-0-0--0-0-0--1-3-2
D-|-0-0-0--6-6-6--X-X-X                2X
G-|-0-0-0--4-4-4--1-3-2
B-|-0-0-0--5-5-5--1-3-2
E-|-0-0-0--0-0-0--1-3-2


E-|-3-3-3-1-1-1-0-----------------
A-|-----------------------------------
D-|-----------------------------------              2X
G-|-----------------------------------
B-|-----------------------------------
E-|------------------3-3-3-1-1-1-0
Comments