Misc - Falling Leaf Chords & Tabs

 

Falling Leaf Chords & Tabs

Misc Chords & Tabs

Version: 1 Type: Tab 1 rating
1 star 2 stars 3 stars 4 stars 5 stars
comments

Falling Leaf Tab

   

				Falling Leaf
				by: Dillon H.

Very simple, yet very cool. This song will make anyone sound good.
Important Note:  Play it slow and thoughtful like, letting each
note in the arpeggio continue ringing like a chord.  

Standard Tuning. 1 Note= 1 Beat. 1 Note with a plus(+)=2 Beats.
Each Measure gets 6 Beats.

The E/Gb chord is a bit of a stretch; it takes practice.

Emaj/Gb= 0-2-4-1-0-0 (Low to High)	   | h=Hammer On
Fingers: X-Middle-Pinky-Index-X-X 	   | +=Hold one beat extra 


	E/Gb
E|--------------------|--------------------|---4h-5--2h-4--0+---|
B|--------------------|--------------------|--------------------|
G|------------1-------|------------1-------|--------------------|
D|---------4-----4----|---------4-----4----|--------------------|
A|------2-----------2-|------2-----------2-|--------------------|
E|---0----------------|---0----------------|--------------------|

[ Tab from: http://www.guitartabs.cc/tabs/m/misc/falling_leaf_tab.html ]
E|--------------------|--------------------|---0h-2--4h-5--2+---|
B|--------------------|--------------------|--------------------|
G|------------1-------|------------1-------|--------------------|
D|---------4-----4----|---------4-----4----|--------------------|
A|------2-----------2-|------2-----------2-|--------------------|
E|---0----------------|---0----------------|--------------------|


E|--------------------|--------------------|---4h-5--2h-4--0+---|
B|--------------------|--------------------|--------------------|
G|------------1-------|------------1-------|--------------------|
D|---------4-----4----|---------4-----4----|--------------------|
A|------2-----------2-|------2-----------2-|--------------------|
E|---0----------------|---0----------------|--------------------|


E|--------------------|--------------------|------------------0-|
B|--------------------|--------------------|---------------0----|
G|------------1-------|------------1-------|------------1-------|
D|---------4-----4----|---------4-----4----|---------4----------|
A|------2-----------2-|------2-----------2-|------2-------------|
E|---0----------------|---0----------------|---0----------------|


			Tabbed by: PizzaCow (Dillon H.)
	Comments? Questions? Send them to pizzacow@hotmail.com
Comments