Misc - Fallen Chords & Tabs

 

Fallen Chords & Tabs

Misc Chords & Tabs

Version: 1 Type: Tab 0 ratings
1 star 2 stars 3 stars 4 stars 5 stars
comments

Fallen Tab

   
This Is My Band... this is the first song i have tabbed... 
if you need to contact me my AIM sn is BLINDedByDARKnss...
or... email me at GhostOfMourningSpirits@Musician.Org... Enjoy!

/ = Slide
// = Pick Slide
X = Dead Note
M = Mute
Normal Tunning 
Gain - 80%
Treble - 100%
Bass - 100%

	              ~FaLlEn~

E-|------------------------------------------------------------
A-|------------------------------------------------------------
D-|------------------------------------------------------------
G-|------------------------------------------------------------
B-|------------------------------------------------------------
E-|-999999999/444444444/555555555/11111/000

~Verse~
E-|1--3-3--2--1-1--3--2--1--3--2-2
A-|1--3-3--2--1-1--3--2--1--3--2-2
D-|X--X-X--X--X-X--X--X--X--X--X-X             2X
G-|1--3-3--2--1-1--3--2--1--3--2-2
B-|1--3-3--2--1-1--3--2--1--3--2-2
E-|1--3-3--2--1-1--3--2--1--3--2-2

~ChOrUs~
E-|-----0-------0--------0-------0-------0-------0
A-|-----0-------0--------0-------0-------0-------0
D-|-----0-------0--------0-------0-------0-------0
G-|-----0-------0--------0-------0-------0-------0
B-|-----0-------0--------0-------0-------0-------0
E-|0-0-0--0-0-0--0-0-0--0-0-0--0-0-0--0-0-0 

E-|------------------------------------------------------------
A-|------------------------------------------------------------
D-|------------------------------------------------------------
G-|------------------------------------------------------------
B-|------------------------------------------------------------
E-|-999999999/444444444/555555555/11111/000
 
~Verse~
E-|1--3-3--2--1-1--3--2--1--3--2-2
A-|1--3-3--2--1-1--3--2--1--3--2-2
D-|X--X-X--X--X-X--X--X--X--X--X-X           2X
G-|1--3-3--2--1-1--3--2--1--3--2-2
B-|1--3-3--2--1-1--3--2--1--3--2-2
E-|1--3-3--2--1-1--3--2--1--3--2-2 
[ Tab from: http://www.guitartabs.cc/tabs/m/misc/fallen_tab.html ]
~ChOrUs~
E-|-----0-------0--------0-------0-------0-------0
A-|-----0-------0--------0-------0-------0-------0
D-|-----0-------0--------0-------0-------0-------0
G-|-----0-------0--------0-------0-------0-------0
B-|-----0-------0--------0-------0-------0-------0
E-|0-0-0--0-0-0--0-0-0--0-0-0--0-0-0--0-0-0 

E-|------------------------------------------------------------
A-|------------------------------------------------------------
D-|------------------------------------------------------------
G-|------------------------------------------------------------
B-|------------------------------------------------------------
E-|-999999999/444444444/555555555/11111/000


E-|//-0              E-| //-0-//-0-//-0
A-|//--              A-| //-0-//-0-//-0
D-|//--      4X   D-| //-0-//-0-//-0
G-|//--             G-| //-0-//-0-//-0
B-|//--             B-| //-0-//-0-//-0
E-|//--             E-| //-3-//-1-//-2


E-|------------------------------------------------------------
A-|------------------------------------------------------------
D-|------------------------------------------------------------
G-|------------------------------------------------------------
B-|------------------------------------------------------------
E-|-999999999/444444444/555555555/11111/000

E-|------------------------------------------------------------
A-|------------------------------------------------------------
D-|------------------------------------------------------------
G-|------------------------------------------------------------
B-|------------------------------------------------------------
E-|-999999999/444444444/555555555/11111/000

~ChOrUs~
E-|-----0-------0--------0-------0-------0-------0
A-|-----0-------0--------0-------0-------0-------0
D-|-----0-------0--------0-------0-------0-------0
G-|-----0-------0--------0-------0-------0-------0
B-|-----0-------0--------0-------0-------0-------0
E-|0-0-0--0-0-0--0-0-0--0-0-0--0-0-0--0-0-0 

E-|7-3-5-1-0M
A-|7-3-5-1-0M
D-|X-X-X-X-0M
G-|7-3-5-1-0M
B-|7-3-5-1-0M
E-|7-3-5-1-0M
Comments