Misc - Dueling Banjos Chords & Tabs

 

Dueling Banjos Chords & Tabs

Misc Chords & Tabs

Version: 1 Type: Tab 5 ratings
1 star 2 stars 3 stars 4 stars 5 stars
comments

Dueling Banjos Tab

E|-2-3-5-2-3-0-2--0-
B|---------------3--
G|------------------
D|------------------
A|------------------
E|------------------

E|-2-3-5-2-3-0-2--0-
B|---------------3--
G|------------------
D|------------------
A|------------------
E|------------------
[ Tab from: http://www.guitartabs.cc/tabs/m/misc/dueling_banjos_tab.html ]
E|-------------------------------
B|---3-3-5-7-3-7-5-3-3-5-7-3-2---
G|-2-----------------------------
D|-------------------------------
A|-------------------------------
E|-------------------------------

Yo this is the hick song thats on commercials and stuff. This is my first tab so it could be wrong.
Comments