Misc - Drunken Sailor Chords & Tabs

 

Drunken Sailor Chords & Tabs

Misc Chords & Tabs

Version: 1 Type: Tab 4 ratings
1 star 2 stars 3 stars 4 stars 5 stars
comments

Drunken Sailor Tab

Song: ( What Do you do with a ) Drunken sailor
This is surely right!!!
Artist: Unknown
Difficulty: Easy

[ Tab from: http://www.guitartabs.cc/tabs/m/misc/drunken_sailor_tab.html ]
------------------------------------------------------------
------------------------------------------------------------
-2-22-2-22-2-----2----0-00-0-00-0-----0---------------------
-------------0-3--------------------2-----------------------
----------------------------------3-------------------------
------------------------------------------------------------


------------------------------------------------------------
-------------0-1-3-1----------------------------------------
-2-22-2-22-2---------2-0------------------------------------
-------------------------2-0-0------------------------------
------------------------------------------------------------
------------------------------------------------------------

If you have problems or corrections
Type in 
gogita222@msn.com
Comments