Misc - Dragon Ball Z Theme Chords & Tabs

 

Dragon Ball Z Theme Chords & Tabs

Misc Chords & Tabs

Version: 1 Type: Tab 0 ratings
1 star 2 stars 3 stars 4 stars 5 stars
comments

Dragon Ball Z Theme Tab

This is the coolest dbz theme

It's set up to show exactly when the first and second guitar correspond
with each other, hence all the spaces.

Gtr. 1
e-------------------------------------------------------
B-------------------------------------------------------
G-------------------------------------------------------
D-------------------------------------------------------
A-------------------3-5-6-8-----------------------------
E--\3-6-3-5-6---------------------------3-6-3-5-6-------

Gtr. 2
e---------------------------x-x-20b(21)----------21b(22)
B-------------------------------------------------------
G-------------15-12-------------------------------------
D-------------------------------------------------------
A-------------------------------------------------------
E-------------------------------------------------------




Gtr. 1
e-----------------------------------------------------------------------
B-----------------------------------------------------------------------
G---------------------------------------------
D-----------------------------------------------------------------------
A--3-8-3--10-13-14----------------10-13-10-12---------------------------
E-----------------------------------------------------------------------

Gtr. 2
e-----------------------------------------------------------------------
B-----------------------------------------------------------------------
G---------------------------------/15-15p14h15----15----17b&r-15-15-----
D---------14h15p14-----------------------------17----17-----------------
A------------------17p15p12-15-12---------------------------------------
E-----------------------------------------------------------------------




Gtr. 1
e---------------------------------------------------------------------------
B-----------------------------15-16-15p13-15--------------------------------
G--12-10p8h10-15-/15-14h15-17-----------------------------------------------
D---------------------------------------------------------------------------
A---------------------------------------------------------------------------
E---------------------------------------------------------------------------
[ Tab from: http://www.guitartabs.cc/tabs/m/misc/dragon_ball_z_theme_tab.html ]
Gtr. 2
e------------------------18-17----------------------------------------------
B--------------18b&r-----------18-15----------------------------------------
G------------------------------------17p15-17b(19)p15-17b-17b-17b-(19)p15-15
D---------------------------------------------------------------------------
A---------------------------------------------------------------------------
E---------------------------------------------------------------------------



Gtr. 1
e---------------------------------------------------------------
B---------------------------------------------------------------
G---------------------------------------------------------------
D---------------------------------------------------------------
A-------------------------3-5-6-8-------------------------------
E--\3-6-3-5-3--------------------------------------------3-6-5-6

Gtr. 2
e------------(tr.picking)14b(15)-15h18h20b&r-20b&r-18-----------
B-------------1515151515------------------------------20--------
G--12-----------------------------------------------------------
D---------------------------------------------------------------
A---------------------------------------------------------------
E---------------------------------------------------------------



Gtr. 1
e---------------------------------------
B---------------------------------------
G---------------------------------------
D---------------------------------------
A--3-5h6-8-8----------------------------
E------------20////////////////////////3

Gtr. 2
e----15h18p15---------------------------
B-------------18p15p13------------------
G----------------------19p17p15---------
D-------------------------------20p19p17
A---------------------------------------
E---------------------------------------




Gtr. 1
e-----------------------------------------------------------------
B-----------------------------------------------------------------
G-----------------------------------------------------------------
D--5-8-55-3-5-8-10--5-8-55-3-5-8-3--5-8-55-3-5-8-10-8-131313-8-333
A--5-8-55-3-5-8-10--5-8-55-3-5-8-1--5-8-55-3-5-8-10-8-131313-8-333
E--3-6-33-1-3-6-8---3-6-33-1-3-6-1--3-6-33-1-3-6-8--6-111111-6-111

Gtr. 1 (cont.)
e-----------------------------------------------------------------
B-----------------------------------------------------------------
G-----------------------------------------------------------------
D--5-8-55-3-5-8-10-xx-5-8-10-8-10-131313-121212-12----121212------
A--5-8-33-3-5-8-10-xx-5-8-10-8-10-131313-121212-12----121212------
E--3-6-33-1-3-6-8--xx-3-6-8--6-8--111111-111111-10----101010------


That's it, I'm not 2 sure about the end.
Comments