Misc - Draculas Castle From Castlevania Sotn Chords & Tabs

 

Draculas Castle From Castlevania Sotn Chords & Tabs

Misc Chords & Tabs

Version: 1 Type: Tab 1 rating
1 star 2 stars 3 stars 4 stars 5 stars
comments

Draculas Castle From Castlevania Sotn Tab

Castlevania: Symphony of the Night - Dracula’s Castle
Hey out there you Castlevania fans!!! If you have any
complaints e-mail me at hawk@hawknaea.com… this is my
first tab… I like playing this song very much you 
should too. Oh yeah all you have to do to play this 
song is tune the low E String to D. To do so, Tune 
down until 7th fret on the low E string is equal to 0
 on the A string… or 12th fret on the E string is 
equal to the 0 on the D string… And last but not least
 the intro is not quite right but it works…
D---9-9-9-9-9-9-9-9--5-5-5-5-5-5-5-5--9-9-9-9-9-9-9--11-12-11-12-14-12-11-||------------------------------
A---9-9-9-9-9-9-9-9--5-5-5-5-5-5-5-5--9-9-9-9-9-9-9--11-12-11-12-14-12-11-||-O----------------------------
D---9-9-9-9-9-9-9-9--5-5-5-5-5-5-5-5--9-9-9-9-9-9-9--11-12-11-12-14-12-11-||------------------------------
G-------------------------------------------------------------------------||------------------------------
B-------------------------------------------------------------------------||-O----------------------------
E-------------------------------------------------------------------------||------------------------------
[ Tab from: http://www.guitartabs.cc/tabs/m/misc/draculas_castle_from_castlevania_sotn_tab.html ]
D-----------------------------------------------||--------------------------------------------------------
A----------------------------------------------O||--------------------------------------------------------
D--------3----------------3-1------3------------||------------3-1-3------------3-1------3-0--1-3---3------
G--0-2-3---0-2-3b5-3-2-0------2-0----0----------||----0-2-3-0-------0-2-3-1-0------2-0-----------0--------
B----------------------------------------------O||--------------------------------------------------------
E-----------------------------------------------||--------------------------------------------------------
                                                                                     __1___      ___2__
D--------------------------------------||-------------------------------------------|-----------|---------
A--------------------------------------||-O-----------------------------------------|-----------|---------
D---------------------3-----4-2-4------||-------------------3-----------------------|-----------|---------
G-0-2-3-2-0-0-0-2-3-2---2-0------------||-----3--------3----------------------------|--2-3------|---------
B--------------------------------------||-O-3---1-3-1----1------4-3-4-4-4-3-1-3-----|-------1---|--4------
E--------------------------------------||---------------------1---------------------|-----------|----1-3--

D-----------------------------------------------------------------------------------------8-6-6-4-1-3-----
A-----------------------------------------------------------------------------------------8-6-6-4-1-3-----
D-----------------------------------------------------------------------------------------8-6-6-4-1-3-----
G---------------------------------------------------------------------------------------------------------
B----1-----3---------6-3-----------9-6--------------------------------------------------------------------
E--1----1----3-5-6-5-----3-6-8-9-8-----6-8-9-13-11-8-9-6-8-9-11-8-9-11-13---------------------------------

D--3-3-8-6-3-3-1-2-3-3-8-6-3
A--3-3-8-6-3-3-1-2-3-3-8-6-3
D--3-3-8-6-3-3-1-2-3-3-8-6-3
G---------------------------
B---------------------------
E---------------------------

Comments