Misc - Descention Chords & Tabs

 

Descention Chords & Tabs

Misc Chords & Tabs

Version: 1 Type: Tab 0 ratings
1 star 2 stars 3 stars 4 stars 5 stars
comments

Descention Tab

   
                      DESCENTION

This is a solo I heard on a site and I spent a long time tracking down the tabs
I think it's cool, hope you like it.

e--14-7-10(x8)-14-5-8(x8)-14-1-4(x8)-12-1-4(x4)-12-0-3(x4)------|
B---------------------------------------------------------------|
G---------------------------------------------------------------|
D---------------------------------------------------------------|
A---------------------------------------------------------------|
E---------------------------------------------------------------|
________________________________________________________________

G---------------------------------------------------------------|
D---------------------------------------------------------------|
A---------------------------------------------------------------|
E--7h10(x8)---5h8(x8)-----1h4(x12)----------------0h3(x4)-------|
________________________________________________________________

e-12-0-5(x8)-12-0-5-12-0-6-12-0-7-12-0-8------------------------|
B------------<----------(x4)----------->------------------------|
G---------------------------------------------------------------|
D---------------------------------------------------------------|
A---------------------------------------------------------------|
E---------------------------------------------------------------|
________________________________________________________________

G---------------------------------------------------------------|
D---------------------------------------------------------------|
A-----------<----(x4)----->-------------------------------------|
E-0h5(x8)---0h5-0h6-0h7-0h8-------------------------------------|
________________________________________________________________

e-12-0-8-12-0-7-12-0-6-12-0-5-12-0-4-12-0-3-12-0-2-12-0-1-12-0-1|
B-<----------(x4)----------->-----------------------------------|
G---------------------------------------------------------------|
D---------------------------------------------------------------|
A---------------------------------------------------------------|
E---------------------------------------------------------------|
________________________________________________________________

G---------------------------------------------------------------|
D---------------------------------------------------------------|
A---------------------------------------------------------------|
E-0h8-0h7-0h6-0h5(x4)-0h4-0h3-0h2-0h1-0h1-----------------------|
________________________________________________________________

e-12-0-2-12-0-3-12-0-4-12-0-5-12-5-7(X8)-12-7-9(X4)-------------|
B---------------------------------------------------------------|
G---------------------------------------------------------------|
D---------------------------------------------------------------|
A---------------------------------------------------------------|
E---------------------------------------------------------------|
________________________________________________________________
[ Tab from: http://www.guitartabs.cc/tabs/m/misc/descention_tab.html ]
G---------------------------------------------------------------|
D---------------------------------------------------------------|
A---------------------------------------------------------------|
E-0h2-0h3-0h4-0h5-5h7(x8)-7h9(x4)-------------------------------|
________________________________________________________________


e-12-7-9-(X3)-11-7-9-(X3)-10-7-9(X3)----------------------------|
B-<---------------(X4)------------->----------------------------|
G---------------------------------------------------------------|
D---------------------------------------------------------------|
A---------------------------------------------------------------|
E---------------------------------------------------------------|
________________________________________________________________

G---------------------------------------------------------------|
D---------------------------------------------------------------|
A-<(x4)->-------------------------------------------------------|
E-7h9(x9)-------------------------------------------------------|
________________________________________________________________


e-12-5-7(x3)-11-5-7(x3)-10-5-7(x3)-11-5-7(x3)-12-5-7(x3)--------|
B-<------------------------(x3)------------------------>--------|
G---------------------------------------------------------------|
D---------------------------------------------------------------|
A---------------------------------------------------------------|
E---------------------------------------------------------------|
________________________________________________________________

G---------------------------------------------------------------|
D---------------------------------------------------------------|
A-<-(x3)->------------------------------------------------------|
E-5h7(x15)------------------------------------------------------|
________________________________________________________________


e-12-0-5(x8)-12-0-7-12-0-3(x8)-12-0-5-12-0-2(x8)----------------|
B-<--------------------(x3)-------------------->----------------|
G---------------------------------------------------------------|
D---------------------------------------------------------------|
A---------------------------------------------------------------|
E---------------------------------------------------------------|
________________________________________________________________

G---------------------------------------------------------------|
D---------------------------------------------------------------|
A-<------------(x3)------------->-------------------------------|
E-0h5(x8)-0h7-0h3(x8)-0h5-0h2(x8)-------------------------------|
________________________________________________________________


e-14-0-5(x10)-14-0-4(x4)-14-0-5(x4)-14-0-4(x4)-14-0-Let-it-Ring-|
B-<------(x3)---------->----------------------------------------|
G---------------------------------------------------------------|
D---------------------------------------------------------------|
A---------------------------------------------------------------|
E---------------------------------------------------------------|
________________________________________________________________

G---------------------------------------------------------------|
D---------------------------------------------------------------|
A-<----(x3)------>----------------------------------------------|
E-0h5(x10)-0h4(x4)-0h5(x4)-0h4(x4)-0-Let-it-Ring----------------|
________________________________________________________________
Comments