Misc - Dazy By Nick Hubbell Chords & Tabs

 

Dazy By Nick Hubbell Chords & Tabs

Misc Chords & Tabs

Version: 1 Type: Tab 0 ratings
1 star 2 stars 3 stars 4 stars 5 stars
comments

Dazy By Nick Hubbell Tab

Artist: Nick Hubbell
Title: Dazy

this is a song i wrote one night while i was extremely bored at 3 AM.  hopefully you will 
like this stupid little thing i call a song.  its kind of long, almost 5 minutes, 
apporximately 4 minutes and 55 seconds when played completely.  if you have any suggestions,
feel free to email me at kheaz_n_befe@hotmail.com  enjoy

standard tuning.  

INTRO
[ Tab from: http://www.guitartabs.cc/tabs/m/misc/dazy_by_nick_hubbell_tab.html ]
e-------3---------------3---------------3---------------3-----------
b---1-----1---1-----1-----1---1-----1-----1---1-----1-----1---------
g-2---2-----2---2-0---0-----0---0-------------------------------0---
d---------------------------------3---3-----3---3-0---0-----0-2-----
a-------------------------------------------------------------------
e-------------------------------------------------------------------

e-------3---------------3---------------3---------------3-----------
b---1-----1---1-----1-----1---1-----1-----1---1-----1-----1---------
g-2---2-----2---2-0---0-----0---0-----------------------------------
d---------------------------------3---3-----3---3-0---0-----0-2~---- 
Comments