Misc - Cool Spanish Song Chords & Tabs

 

Cool Spanish Song Chords & Tabs

Misc Chords & Tabs

Version: 1 Type: Tab 4 ratings
1 star 2 stars 3 stars 4 stars 5 stars
comments

Cool Spanish Song Tab

   
This is a cool spanish song.  It sounds better fast so once you get the hang of it try doing it faster.

tune your guitar normally (e a d g b e)


* = rest



[ Tab from: http://www.guitartabs.cc/tabs/m/misc/cool_spanish_song_tab.html ]
E-0--0--1--3--1--0----------------------------------------------------*------------------------------------------
B-------------------0--3--1--0--1-----0--1--0--3--1--0----------------*-1-1-1-1-1-1-1-1-1-1----------------------
G----------------------------------2--------------------2--0--------1-*-2-2-2-2-2-2-2-2-2-2--1-1-1-1-1-1-1-1-1-1-
D-------------------------------------------------------------3--2--2-*-2-2-2-2-2-2-2-2-2-2----2-2-2-2-2-2-2-2-2-
A-------------------------------------------------------------------2-*------------------------2-2-2-2-2-2-2-2-2-
E---------------------------------------------------------------------*------------------------------------------

E----------------------------------------------3-3-3-3-3-3-3-3-3-3--1-1-1-1-1-1-1-1-1-1--------------------------
B-----1-1-1-1-1-1-1-1-1-1----------------------3-3-3-3-3-3-3-3-3-3--1-1-1-1-1-1-1-1-1-1----1---1-----------------
G-1---2-2-2-2-2-2-2-2-2-2--1-1-1-1-1-1-1-1-1---4-4-4-4-4-4-4-4-4-4--2-2-2-2-2-2-2-2-2-2----2-1-2-----------------
D-2---2-2-2-2-2-2-2-2-2-2--2-2-2-2-2-2-2-2-2---5-5-5-5-5-5-5-5-5-5--3-3-3-3-3-3-3-3-3-3----2-2-2-----------------
A-2------------------------2-2-2-2-2-2-2-2-2---5-5-5-5-5-5-5-5-5-5--3-3-3-3-3-3-3-3-3-3------2-------------------
E----------------------------------------------3-3-3-3-3-3-3-3-3-3--1-1-1-1-1-1-1-1-1-1--------------------------


TRY IT!

My name is david, you can email me at  dajasa@yahoo.com  i'll be happy to read any questions or comments.
Comments