Misc - Cool Song Chords & Tabs

 

Cool Song Chords & Tabs

Misc Chords & Tabs

Version: 2 Type: Tab 0 ratings
1 star 2 stars 3 stars 4 stars 5 stars
comments

Cool Song Tab

   
Tabbed By: Daniel App & Robbie Barrere
Cool Song (check it out)
FULL DISTORTION!! (All rythm is fast except Chorus)

GUITAR A  INTRO (w/Guitar B) Verse
e:-------------------------------------------------|
B:-------------------------------------------------|
G:-------------------------------------------------|
D:-------------------------------------------------|
A:-----2-----2-----2-----2-----2-----2-----2-----2-|
E:-0-0---0-0---0-0---0-0---0-0-2-0-0-2-0-0-2-0-0-2-|
   PM.   PM.   PM.   PM.   PM.   PM.   PM.   PM.

GUITAR B
e:-------------------------------------------------|
B:-------------------------------------------------|
G:-------------------------------------------------|
D:-----9-----9-----9-----9-------------------------|
A:-0-0-7-0-0-7-0-0-7-0-0-7-----4-----4-----4-----4-|
E:-------------------------0-0-2-0-0-2-0-0-2-0-0-2-|
   PM.   PM.   PM.   PM.   PM.   PM.   PM.   PM.

CHORUS (BOTH GUITARS)
[ Tab from: http://www.guitartabs.cc/tabs/m/misc/cool_song_tab_ver_2.html ]
e:-------------------------------|
B:-------------------------------|
G:-------------------------------|
D:-------------------------------|
A:-7-----------------------------|
E:-5-6-5-3-3/6-6-7-5-5-6-4-4-5-3-|

INTERLUDE/OUTRO (GUITAR A)

e:-------------------------------------------------|
B:-------------------------------------------------|
G:-------------------------------------------------|
D:-------------------------------------------------|
A:-----2-----2-----2-----2-----2-----2-----2-----2-|
E:-0-0-0-0-0-0-0-0-0-0-0-0-0-0-2-0-0-2-0-0-2-0-0-2-|
   PM.   PM.   PM.   PM.   PM.   PM.   PM.   PM.

INTERLUDE (GUITAR B)

e:--------------------|
B:--------------------|
G:--------------------|
D:--------------------|
A:-0-2-3-2--0-2-3-2-1-|
E:--------------------|
   PM................

SOLO (BOTH GUITARS) /OUTRO (GUITAR B)

e:---------------------|
B:---------------------|
G:---------------------|
D:-5-3-------------5-3-|
A:-----5-4-3-3-4-5-----|
E:---------------------|

STRUCTURE:

INTRO x4 (GUITAR A) x2 (GUITAR B)
VERSE x3
CHORUS x2
VERSE x3
CHORUS x2
INTERLUDE x6 (GUITAR B) x5 (GUITAR A)
CHORUS x1
SOLO x5 (GUITAR B) x4 (GUITAR A)
VERSE x3
CHORUS x2
OUTRO x6 (GUITAR B)
Comments