Misc - Cool Little Spanish Tab Chords & Tabs

 

Cool Little Spanish Tab Chords & Tabs

Misc Chords & Tabs

Version: 1 Type: Tab 1 rating
1 star 2 stars 3 stars 4 stars 5 stars
comments

Cool Little Spanish Tab Tab

This is just a little spanish tune I made, pretty easy and its nothing really special
thanks for checking it out
-Matt


|12--7-8--10-8-7-10----7-8--10-8-7-10------8-7-8-10-7---8-7-0-10-
|0-10---------------10----------------10-8------------0----------
|----------------------------------------------------------------
|----------------------------------------------------------------
|0---------------------------------------------------------------
|----------------------------------------------------------------
[ Tab from: http://www.guitartabs.cc/tabs/m/misc/cool_little_spanish_tab_tab.html ]
|--7-8--10-8-7-10----7-8--10-8-7-10----7-9-10-5-----5\7----------
|10---------------10----------------10-----------10--------------
|----------------------------------------------------------------
|----------------------------------------------------------------
|----------------------------------------------------------------
|----------------------------------------------------------------

|1010101087---1010101078--1010-7\8----7-8--10---7\8-10-----------
|-0-0-0-000----0-0-0-000-----------10----------------------------
|----------------------------------------------------------------
|----------------------------------------------------------------
|----------------------------------------------------------------
|----------------------------------------------------------------


and thats about it. Sure ya can change it, why not. Its not anywhere
near perfect anyways.
Comments