Misc - Cool Jazz Progression Chords & Tabs

 

Cool Jazz Progression Chords & Tabs

Misc Chords & Tabs

Version: 1 Type: Tab 0 ratings
1 star 2 stars 3 stars 4 stars 5 stars
comments

Cool Jazz Progression Tab

Jazz Chord Progression
Tabbed By Greg Templeton
Comments/Suggestions/Feedback to:
ljtemp@nctimes.net.


|------------------------------
|----3---3------3---3----------
|----4---4------4---4----------
|----4---4------2---2----------
|------------------------------
|-3----3---0-3----3------------


|------------------------------
|-------5---5----4---5-5-------
|-------5---5----5---5-5-------
|-------5---5----4---3-3-------
|------------------------------
|-0--5----5----0---4-----------

[ Tab from: http://www.guitartabs.cc/tabs/m/misc/cool_jazz_progression_tab.html ]
|------------------------------
|-------7---7----6---7-7-------
|-------7---7----7---7-7-------
|-------7---7----6---5-5-------
|------------------------------
|-0--7----7----0---6-----------


|------------------------------
|-------8--8--------8--8-------
|-------9--9--------8--8-------
|-------9--9--------6--6-------
|------------------------------
|-0--8----8----0--8---8--------


|------------------------------
|-------7---7----6---7-7-------
|-------7---7----7---7-7-------
|-------7---7----6---5-5-------
|------------------------------
|-0--7----7----0---6-----------


|------------------------------
|-------5---5----4---5-5-------
|-------5---5----5---5-5-------
|-------5---5----4---3-3-------
|------------------------------
|-0--5----5----0---4-----------


Comments