Misc - Cool Depressing Tune Chords & Tabs

 

Cool Depressing Tune Chords & Tabs

Misc Chords & Tabs

Version: 1 Type: Tab 9 ratings
1 star 2 stars 3 stars 4 stars 5 stars
comments

Cool Depressing Tune Tab

I don't recall where i heard this, but this tune got stuck in my head while i was simple plucking the Am chord and i tabbed it. If anyone has any idea where this came from, let me know at ambidash@hotmail.com


[ Tab from: http://www.guitartabs.cc/tabs/m/misc/cool_depressing_tune_tab.html ]
E------------0---------------------0---------
B---------1-----3--0--1--------1-3---1-3-----
G------2-----------------2-------------------
D---2----------------------------------------
A--------------------------------------------
E--------------------------------------------


E------------0-------------------------------
B---------1-----3--0--1--------0-1-0---------
G------2-----------------2-----------0-2-----
D---2----------------------------------------
A--------------------------------------------
E--------------------------------------------
Comments