Misc - Cool Blues Chords & Tabs

 

Cool Blues Chords & Tabs

Misc Chords & Tabs

Version: 1 Type: Tab 0 ratings
1 star 2 stars 3 stars 4 stars 5 stars
comments

Cool Blues Tab

   
it's a 4/4 
play with blues rhythm! ...DUH! lol 



   A                                                   D
   1  &  2  &  3  &  4  &    1  &  2  &  3  &  4  & 
e-------------------------|-------------------------|-------------------------|
B--------------2--2-------|--2--2-------------------|--------------3--3-------|
G--------------2--2--4--2-|--2--2-------------------|--2--2--------2--2--4--2-|
D--2--2-------------------|--------5--4--2----------|--0--0--3--4-------------|
A--0--0--3--4-------------|-----------------0--3--4-|-------------------------|
E-------------------------|-------------------------|-------------------------|

                            E
[ Tab from: http://www.guitartabs.cc/tabs/m/misc/cool_blues_tab.html ]
e--2--2-------------------|-------------------------|-------------------------|
B--3--3-------------------|-------------------------|-------------------------|
G--------5--4--2----------|-------------------------|-------------------------|
D-----------------0--3--4-|--------------2--2-------|--2----------------------|
A-------------------------|--2--2--------2--2--4--2-|-----2--5--4--2----------|
E-------------------------|--0--0--3--4-------------|-----------------0--3--4-|

  A                         E7#9                 A7 

e-------------------------|-----------------------5-|
B-------------------------|-----8--8-----8--8-----5-|
G-----------------4--2----|-----7--7-----7--7-----6-|
D-----------2--5--------5-|-----6--6-----6--6-----5-|
A--0--0--4----------------|-----7--7-----7--7-----0-|
E-------------------------|--0--------0--------0----|


got any questions? ...email me at futursinger@hotmail.com


Comments