Misc - Common Chords Chords & Tabs

 

Common Chords Chords & Tabs

Misc Chords & Tabs

Version: 1 Type: Chords 7 ratings
1 star 2 stars 3 stars 4 stars 5 stars
comments

Common Chords Chords

   
Misc-Common Chords

####~~~~~~~~~~~~~~~~~~~~~~~~~~~~~~~~~~~~~~~~~~~~~~~~~~~~~~~~~~~~~~####
Here are just some of the common chords that are used in alot of songs 
I put these on because everybody puts full lists of every chord in the
world but they take ages to read and find and work out so heres my very
simple way with just the common chords.

E

---------------------
---------------------
-------1-------------
-------2-------------
-------2------------- thats the chord of E

A
[ Tab from: http://www.guitartabs.cc/tabs/m/misc/common_chords_crd.html ]
---------------------
--------2------------
--------2------------
--------2------------
---------------------
--------------------- thats the chord of A

D

--------2------------
--------3------------
--------2------------
---------------------
---------------------
--------------------- thats the chord of D

G

--------3------------
---------------------
---------------------
---------------------
--------2------------
--------3------------ thats the chord of G

there the main chords used in most songs hope you guys and gals find it useful.
any stuff you want to tell me about it then my e-mail is: 
CYA LATER!!!
Comments