Misc - Clock Striking Hour Chords & Tabs

 

Clock Striking Hour Chords & Tabs

Misc Chords & Tabs

Version: 1 Type: Tab 1 rating
1 star 2 stars 3 stars 4 stars 5 stars
comments

Clock Striking Hour Tab

Here's yet another tab that i thought needed to be corrected.
Here's the complete clock striking the hour.

Props to Phillip Mothershed for tabbing  the initial sounds.

Corrected tab by:  guitartabreader

Here it is:  Clock Striking The Hour

[ Tab from: http://www.guitartabs.cc/tabs/m/misc/clock_striking_hour_tab.html ]
--5---9---7-----------------7---9---5-------9---5---7---------
--------------5--------5--------------------------------5-----
--------------------------------------------------------------
--------------------------------------------------------------
--------------------------------------------------------------
--------------------------------------------------------------


------7---9---5------------9,9,9 (3 o'clock)------
--5-----------------------------==----------------
--------------------------------------------------
--------------------------------------------------
--------------------------------------------------
--------------------------------------------------
Comments