Misc - Clear Blues Chords & Tabs

 

Clear Blues Chords & Tabs

Misc Chords & Tabs

Version: 1 Type: Tab 0 ratings
1 star 2 stars 3 stars 4 stars 5 stars
comments

Clear Blues Tab

   
#----------------------------------PLEASE NOTE---------------------------------#
#This file is the author's own work and represents their interpretation of the #
#song. You may only use this file for private study, scholarship, or research. #
#------------------------------------------------------------------------------##

                                    BRNDABLU


Gtr I (E A D G B E) - 'Acoustic Guitar (nylon)'

  Q=120
 4/4
  Gtr I
  E S S S S S S E. S E. S   E. S Q  Q  Q    Q  E. S E. S E. S   Q  Q  Q  Q
|-------------4-7--6-5--3-|---------------|---------0---------|--------------|
|-------2-5---------------|----5----------|-------2----5----5-|--------------|
|-----4-------------------|----4----------|----4---------6--4-|----7-----7---|
|-------------------------|------6-----6--|----5---------5----|----6-----6---|
|-------------------------|------5-----5--|-------------------|--------------|
|-------------------------|-0-------4-----|-5-------0---------|-0-----7------|


  Q  E. S E. S E. S   Q  Q  E. S E. S   E. S E. S E. S E. S   E. S E. S Q  Q
|-------------------|----------3------|---------3-----------|------------------|
|---------5--5----8-|-------5----2--5-|-7----5-------5-7----|-5-------5--------|
|----9--4------7--6-|----6-------0----|----6-0------------6-|----4-7-------7---|
|----6---------6----|----5------------|----------------6----|------6-------6---|
|-------------------|-----------------|----------------5----|------------------|
|-0-------7---------|-5-----0---------|-5---------0---------|-0---------7------|


  Q  E. S E. S E. S   E. S E. S E. S E. S
|-------------------|---------------------|
|------------2----2-|---------------------|
|----6----4----1----|----4-4--2-4--4----6-|
|----6--6------2----|------7---------7--5-|
|----7--------------|-2----6---------6----|
|-0-------0---------|-----------2---------|


  E. S E. S E. S E. S   E. S Q  E. S +Q
|-----------3---------|-3--5---------------|
|----5---------5------|-0----5--5--5-(5)---|
|---------6-----------|---------2--2-(2)---|
|------5---------5----|------8-------------|
|------7---------7--4-|------------2-(2)---|
|-5---------0---------|------8--2----------|


  E. S S S S S E. S +S  E.   Q  Q  Q  Q    E. S E. S E. S E. S   Q  Q  Q  Q
|-0----------4-7--7-(7)-7--|-------------|---------------------|--------------|
|----0-2-5-----------------|-------------|---------5------5--5-|--------------|
|-1------------------------|-7-----------|----4-6-------4-6----|--------------|
|--------------------------|-9--6-----6--|------5---------5----|----6-----6---|
|--------------------------|-------------|---------------------|----7-----7---|
|-0------------------------|-0-----7-----|-5---------0---------|-0-----7------|


  E. S E. S E. S E. S   Q  Q  Q  Q    Q  E. S E. S E. S   Q  Q  Q  Q
|----------------0--0-|-------------|----0--------------|--------------|
|---------5----3-3--0-|----2-----2--|----2----5--5----5-|--------------|
|----7-9--4------1----|----0-----0--|----0--4-4----6--4-|----------6---|
|------6--------------|-------------|--------------5----|----6-----6---|
|-----------2---------|-0-----------|-0-----------------|----7-----7---|
|-0-------------------|-------0-----|---------0---------|-0-----7------|


  E. S  E.  S E. S  E.  S   E. S E. S E. S E. S
|-------------------------|----3----2-----------|
|-------------------------|----0----0---------0-|
|-7-----------------------|------2-------2----3-|
|----9-11-----9--9--------|------1---------1----|
|------11--11------11--12-|-2-------------------|
|-0----12-----7----12-----|-----------2---------|


  E S S E. S E. S Q    E.  S Q  E. S +Q
|--------------------|--------------------|
|-2---5------5--5----|-8--10-------5-(5)--|
|-5---4-6--6------6--|-------9--9--2-(2)--|
|-------5---------5--|-9-----8--7---------|
|--------------------|--------------------|
|-5----------0-------|-9-----8--7--2-(2)--|


  E. S S S S S E. S +S  E.   E. S Q  Q  Q
|-0----------4-5--5-(5)-5--|-2-------------|
|------2-5-----------------|----5----------|
|-0--0---------------------|----4----------|
|--------------------------|------6-----6--|
|--------------------------|------5-----5--|
|-0------------------------|-0-------4-----|


  E. S E. S E. S E. S   Q  Q  Q  Q
|---------------------|--------------|
|---------5------5--5-|--------------|
|------6-------6----4-|--------------|
|----7-5---------5----|----6-----6---|
|------7---------7----|----7-----7---|
|-5---------0---------|-0-----7------|


  Q  E. S E. S E. S   Q  E. S E. S E. S   Q  E. S E. S E. S   Q  E. S Q  E. S
|-------------------|-----------------3-|----0----0---------|------------------|
|----5----5--5------|----8----5---------|----2--2----5----5-|------------------|
|----7--4------7--6-|----6--4----6-6----|----0---------6----|----6----7--6-----|
|----6---------6----|----5---------5----|--------------5----|----6--6----6--6--|
|-------------------|-------------------|-0-----------------|----7-------7-----|
|-0-------7---------|-5-------0---------|---------0---------|-0-------7--------|


  Q  Q  E. S E. S   E. S E. S E. S E. S   E. S E. S E. S E. S   Q  Q  Q  Q
|-----------------|---------------------|---------------------|--------------|
|----------0------|---------------------|---------5------5--5-|-------5--5---|
|-4-----1----1--2-|----4-4--2-4--4------|------6--------------|----4--3--2---|
|----6-------0----|------7---------7--5-|----5-5-------5-5--6-|--------------|
|----7------------|------6---------6----|------7---------7----|----4--3--2---|
|-0-----1---------|-2---------2---------|-5---------0---------|-0------------|

[ Tab from: http://www.guitartabs.cc/tabs/m/misc/clear_blues_tab.html ]
  Q  S S S S E. S S S S S   Q  Q  Q  Q    Q  E. S E. S E. S   E. S Q  Q  Q
|-0-----------------------|-------------|-------------------|----------------|
|---------------2---------|-------------|---------5--5----5-|----5-----------|
|-1--3-2---0-2----0-1-----|----1-----7--|----6--6------6--4-|----4-6--9--6---|
|-----------------------2-|----2-----6--|----5---------5----|------6--9--6---|
|----3-------2------------|-------------|-------------------|-2--------------|
|-0-----------------------|-0-----4-----|-5-------6---------|---------7------|


  Q  E. S E. S E. S   E. S E. S E. S E. S
|----7----7--7----7-|----7----5-----------|
|-----------------5-|-----------8--5----5-|
|----7--4------7----|------6---------6----|
|----6---------6----|------5---------5----|
|-------------------|---------------------|
|-0-------0---------|-5---------5---------|


  Q  E. S S S S S E. S   Q  S S S S E. S E. S
|---------3-2----------|----4----------4-------|
|----7--------5--------|------5---3-5----------|
|----6--6-------6-6--4-|----4------------4--4--|
|----5------------5----|----4------------4-----|
|----------------------|-----------------------|
|-5-------0------------|-4----------4----------|


  S S S S E. S Q  Q    E. S E. S E. S E. S
|-4----------4-------|----2------2--2------|
|---5---3-5----------|----0------0--0----0-|
|---------4-------4--|------2--2------2--3-|
|---------4-------4--|------1---------1----|
|--------------------|-2-------------------|
|-4------------4-----|-----------2---------|


  E S S E. S E. S E. S   Q  Q  E. S E. S
|------------3---------|-----------------|
|-2---5-7--5----5----5-|----------5-5--5-|
|-5-----6---------6----|-------6----6--4-|
|-------5---------5----|----6-------5----|
|----------------------|----7------------|
|-5----------0---------|-0-----5---------|


  E. S S S S S E. S E. S   E. S Q  Q  Q    E. S E. S E. S E. S   Q  Q  Q  Q
|------------4-7--6-5--3-|---------------|-----------0---------|--------------|
|----0-2-5---------------|----5----------|---------2----5----5-|--------------|
|-1----------------------|----4----------|----6-4---------6----|----7-----7---|
|------------------------|------6--------|------5---------5----|----6-----6---|
|------------------------|------5-----5--|---------------------|--------------|
|-0----------------------|-0-------4-----|-5---------0---------|-0-----7------|


  E. S E. S E. S E. S   E. S E. S Q  E. S   E. S Q  E. S E. S   Q  Q  Q  Q
|---------------------|-------------------|-------------------|--------------|
|--------------5------|-----------5--5----|----5----5--5----5-|--------------|
|---------4-----------|------6------------|-6---------------4-|--------------|
|----5-6---------6--6-|-5--5----5----5--5-|------5-------5----|----6-----6---|
|------5----2----5----|------7-------7----|------7-------7----|----5-----5---|
|-0-------------------|-5---------0-------|-5-------0---------|-0-----7------|


  Q  E. S E. S E. S   E. S E. S E. S E. S   S S S S S S S S S S S S E. S
|-------------------|---------------------|------------------------------|
|-3--2--------------|---------------------|------------------------------|
|-------1-4--1----2-|----4-4--2-4--4----4-|---------------2-0------------|
|----0---------0----|---------------------|---------2-0-------2----------|
|---------2---------|-2----6---------6----|---3---4---------------0------|
|-0-----------------|-----------2---------|-5-----------------------3--0-|


  +E. S E. S E. S +Q     Q  E. S E. S E. S
|-------3--5-----------|-------------------|
|------------5--5-(5)--|-5-----5----5----5-|
|----------------------|----2----3----2----|
|----------------------|-6-----------------|
|-----4----------------|-------------------|
|-(0)--------8--7-(7)--|-0--2----0----2----|


  S S E +Q   S S E +Q     S S E +Q    H
|-----0-(0)------0-(0)--|-----0-(0)--24----*|
|---0----------0--------|---0--------------*|
|---1----------1--------|---1--------------*|
|---0----------0--------|---0--------------*|
|-2----------2----------|-2----------------*|
|-0----------0----------|-0----------------*|


Duration Legend
---------------
W - whole; H - half; Q - quarter; E - 8th; S - 16th; T - 32nd; X - 64th; a - acciaccatura
+ - note tied to previous; . - note dotted; .. - note double dotted
Uncapitalized letters represent notes that are staccato (1/2 duration)
Irregular groupings are notated above the duration line
Duration letters will always appear directly above the note/fret number it represents the
duration for.  Duration letters with no fret number below them represent rests.  Multi-
bar rests are notated in the form Wxn, where n is the number of bars to rest for.  Low
melody durations appear below the staff

Tablature Legend
----------------
 h   - hammer-on
 p   - pull-off
 b   - bend
 pb  - pre-bend
 r   - bend release (if no number after the r, then release immediately)
 /\  - slide into or out of (from/to "nowhere")
 s   - legato slide
 S   - shift slide
  - natural harmonic
[n]  - artificial harmonic
n(n) - tapped harmonic
 ~   - vibrato
 tr  - trill
 T   - tap
 TP  - trem. picking
 PM  - palm muting
\n/  - tremolo bar dip; n = amount to dip
 \n  - tremolo bar down
 n/  - tremolo bar up
/n\  - tremolo bar inverted dip
 =   - hold bend; also acts as connecting device for hammers/pulls
   - volume swell (louder/softer)
 x   - on rhythm slash represents muted slash
 o   - on rhythm slash represents single note slash

Misc Legend
-----------
 |  - bar
||  - double bar
||o - repeat start
o|| - repeat end
*|  - double bar (ending)
 :  - bar (freetime)
 $  - Segno
 &  - Coda
Tempo markers -  = BPM(8/16=s8/s16), where s8 = swing 8ths, s16 = swing 16ths


***************************************************************************************
* Generated using Power Tab Editor by Brad Larsen - http://powertab.guitarnetwork.org *
***************************************************************************************
Comments