Misc - Classical Theme Chords & Tabs

 

Classical Theme Chords & Tabs

Misc Chords & Tabs

Version: 1 Type: Tab 0 ratings
1 star 2 stars 3 stars 4 stars 5 stars
comments

Classical Theme Tab

Rapa (C) - Apy ... nush dak chiar suna bine, merita incercat


|-----| |------------------| |------------------| |------------------| |------|
|G----| |-------------0--1-| |-0----------------| |------------------| |------|
|T----| |-2-----------2----| |-------------2--0-| |-2-----2-----2----| |------|
|A--2-| |-------2--------2-| |-------------2----| |-------2--------2-| |------|
|B----| |-0--3-----3-------| |-------2--------2-| |-0--3-----3-------| |-0--3-|
|-----| |------------------| |-0--3-----3-------| |------------------| |------|

------------| |-5-----------5--5-| |-3-----------5--3-| |------------------|
------------| |------------------| |------------------| |------------------|
-------2--2-| |------------------| |-0-----------0--0-| |------------------|
-2--------2-| |-3-----------3--3-| |-------0-----3--0-| |------------------|
----3-------| |----0--3--0-----3-| |----2-----2-------| |-------------3----|
------------| |-1----------------| |-3----------------| |-?--0--3--0-----3-|

  |------------------| |-5-----------5--5-| |-3--3-----3--5--3-| |----0-------|
  |-------------1--1-| |------------------| |----------------0-| |----1-----0-|
  |------------------| |------------------| |-0--0-----0--0----| |------------|
  |-------------2--2-| |-3-----------3--3-| |-------0--------0-| |------------|
  |-------------3----| |----0--3--0-----3-| |----2-----2-------| |------------|
  |-?--0--3--0-----3-| |-1----------------| |-3----------------| |-?--0--3--0-|
[ Tab from: http://www.guitartabs.cc/tabs/m/misc/classical_theme_tab.html ]
-0----| |------------------| |------------------| |------------------| |------|
-1--0-| |-1--------------0-| |-1-----------3--1-| |-0----------------| |------|
------| |-2-----------2--0-| |-------------0--2-| |-------------0--0-| |-2----|
------| |-------2--------2-| |-3-----------3----| |-------0--------0-| |------|
-3----| |-0--3-----3-------| |----0--3--0-----3-| |----2-----2-------| |-0--3-|
----3-| |------------------| |-1----------------| |-3----------------| |------|

------------| |------------------| |-5-----------5--5-| |-3--3-----3--5--3-|
------------| |------------------| |------------------| |----------------0-|
-------2----| |-------------2--2-| |------------------| |-0--0-----0--0----|
-2--------2-| |-------2-----2--2-| |-3-----------3--3-| |-------0--------0-|
----3-------| |-0--3-----3-------| |----0--3--0-----3-| |----2-----2-------|
------------| |------------------| |-1----------------| |-3----------------|

  |----0--------0----| |------------------| |------------------| |------------|
  |----1-----0--1--0-| |-1--------------0-| |-1-----------3--1-| |-0----------|
  |------------------| |-2-----------2--0-| |-------------0--2-| |------------|
  |------------------| |-------2--------2-| |-3-----------3----| |-------0----|
  |-------------3----| |-0--3-----3-------| |----0--3--0-----3-| |----2-----2-|
  |-?--0--3--0-----3-| |------------------| |-1----------------| |-3----------|

------| |------------------| |------------------| |------------------| |------|
------| |------------------| |------------------| |-------------0--1-| |-0----|
-0--0-| |-2-----------2----| |-------------2----| |-2-----------2----| |------|
-3--0-| |-------2--------2-| |-------2-----2--2-| |-------2--------2-| |------|
------| |-0--3-----3-------| |-0--3-----3-------| |-0--3-----3-------| |------|
------| |------------------| |------------------| |------------------| |-0--3-|
Comments