Misc - Chump Chords & Tabs

 

Chump Chords & Tabs

Misc Chords & Tabs

Version: 1 Type: Tab 0 ratings
1 star 2 stars 3 stars 4 stars 5 stars
comments

Chump Tab

-------------------------------------------------------------------------------
			     Chump - N/A
-------------------------------------------------------------------------------

I am not sure who originally wrote this song, and I would like to know.  
Some lady at a club played this with a clean acoustic guitar, one overdrive, 
one bass, one distort, a small vocal, and percussion.  I don't know how to write 
percussion or vocal so I just have the guitar tabs here.  The song is written in 
bars with a total of twenty four.  A ~ represents that up to the bar in front of 
it, that instrument plays nothing, so all bars with ~ mean nothing is played.  / 
means to slide, always sliding to the next note. { means to rest.  The rests are 
very brief.  not even a second.  Keep the beginning flowing smooth.  The song is 
in 4/4 timing.  Get accustomed to the rate of playing.  Unfortunatly I know of no 
song out there that you could listen to to get an idea, but if you practice you 
should just get a basic rythym.  This is my first tab so please send me any comments 
or suggestions to the e-mail below.

By: transcribed by Psycho Sushi usernamesarehardtofind@hotmail.com
GUITAR 1 CLEAN 4/4
 Bar 1              2                 3                 4
e|-----------------|-----------------|-----------------|-----------------|
B|-----------------|-----------------|-----------------|-----------------|
G|-----0-------0---|-----0-------0---|-----0-------0---|-----0-------0---|
D|---2-------2-----|---2-------2-----|---2-------2-----|---2-------2-----|
A|-0-----0-3-----3-|-----------------|-0-----0-3-----3-|-----------------|
E|-----------------|-3-----3-2-----2-|-----------------|-3-----3-2-----2-|
  
Bar 5               6                 7                 8
e|-----------------|-----------------|-----------------|-----------------|
B|-----------------|-----------------|-----------------|-----------------|
G|-----0-------0---|-----0-------0---|-----0-------0---|-----0-------0---|
D|---2-------2-----|---2-------2-----|---2-------2-----|---2-------2-----|
A|-0-----0-3-----3-|-----------------|-0-----0-3-----3-|-----------------|
E|-----------------|-3-----3-2-----2-|-----------------|-3-----3-2-----2-|

Bar 9               10                11                12
e|-----------------|-----------------|-----------------|-----------------|
B|-----------------|-----------------|-----------------|-----------------|
G|-----0-------0---|-----0-------0---|-----0-------0---|-----0-------0---|
D|---2-------2-----|---2-------2-----|---2-------2-----|---2-------2-----|
A|-0-----0-3-----3-|-----------------|-0-----0-3-----3-|-----------------|
E|-----------------|-3-----3-2-----2-|-----------------|-3-----3-2-----2-|

   13~20  Bar 21             22                 23~24
e|~~~~~~~~|-----------------|-----------------|~~~~~~~~~~|F
B|~~~~~~~~|-----------------|-----------------|~~~~~~~~~~|
G|~~~~~~~~|-----0-------0---|-----0-------0---|~~~~~~~~~~|I
D|~~~~~~~~|---2-------2-----|---2-------2-----|~~~~~~~~~~|
A|~~~~~~~~|-0-----0-3-----3-|-----------------|~~~~~~~~~~|N
E|~~~~~~~~|-----------------|-3-----3-2-----2-|~~~~~~~~~~|

BASS GUITAR
  1~4 Bar 5            6                 7                 8
G|~~~|----------------|-----------------|-----------------|-----------------|
D|~~~|----------------|-----------------|-----------------|-----------------|
A|~~~|0-0-0-2-3-3-3-2-|-----------------|-0-0-0-2-3-3-3-2-|-----------------|
E|~~~|----------------|-3-3-3-3-2-2-2-2-|-----------------|-3-3-3-3-2-2-2-2-|

  Bar 9              10                11                12
G|------------------|-----------------|-----------------|-----------------|
D|------------------|-----------------|-----------------|-----------------|
A|-0-0-0-2-3-3-3-2--|-----------------|-0-0-0-2-3-3-3-2-|-----------------|
E|------------------|-3-3-3-3-2-2-2-2-|-----------------|-3-3-3-3-2-2-2-2-|
[ Tab from: http://www.guitartabs.cc/tabs/m/misc/chump_tab.html ]
  Bar 13             14                15                16
G|------------------|-----------------|-----------------|----------------|
D|------------------|-----------------|-----------------|----------------|
A|-0000002233333322-|-----------------|-0000002233333322|----------------|
E|------------------|-3333333322222222|-----------------|3333333322222222|

  Bar 17             18                19                20
G|------------------|-----------------|-----------------|----------------|
D|------------------|-----------------|-----------------|----------------|
A|-0000002233333322-|-----------------|-0000002233333322|----------------|
E|------------------|-3333333322222222|-----------------|3333333322222222|

  Bar 21             22                 23       24
G|------------------|-----------------|---------|---------|F
D|------------------|-----------------|---------|---------|I
A|-0000002233333322-|-----------------|-0-0-3-3-|---------|N
E|------------------|-3333333322222222|---------|-3-3-2-2-|E

OVER DRIVEN GUITAR (EACH BAR SHOULD TAKE FOUR SECONDS)
bar1~4      Bar 5    Bar 6
e|~~~~~|-------------|-----------------|---------------------------------
B|~~~~~|-------------|-----------------|---------------------------------
G|~~~~~|-2-2-2-2-0-0-|-----------------|---REPEAT-BAR-5-&-6--THREE-MORE--
D|~~~~~|-2-2-2-2-2-2-|-0-0-0-0-0-0-0-0-|-------TIMES--UP-----------------
A|~~~~~|-0-0-0-0-3-3-|-2-2-2-2-0-0-0-0-|----------TO--BAR----------------
E|~~~~~|-------------|-3-3-3-3-2-2-2-2-|---------------13----------------

BAR 13                       rest 1 sec   Bar 14
e|-------------0-----------------{-------|--------------------------------|
B|-----0-----0-----------0-0-----{-------|--------------------------------|
G|---2-------2---2---0-----------{-----0-|-----0-----0--------------------|
D|---2---2-------2---2-------2---{-----2-|-----0---0--------0-0-------0---|
A|-0-------0-------3---3-----3---{-----3-|---2---2-2---2----0-2-0-0-0---0-|
E|-------------------------------{-------|-3-------3---2/3-2------2-2-3-2-|

  Bar 15                      rest 1 sec  Bar 16
e|-------------0-----------------{-------|--------------------------------|
B|-----0-----0-----------0-0-----{-------|--------------------------------|
G|---2-------2---2---0-----------{-----0-|-----0-----0--------------------|
D|---2---2-------2---2-------2---{-----2-|-----0---0--------0-0-------0---|
A|-0-------0-------3---3-----3---{-----3-|---2---2-2---2----0-2-0-0-0---0-|
E|-------------------------------{-------|-3-------3---2/3-2------2-2-3-2-|

  Bar 17                      rest 1 sec  Bar 18
e|-------------0-----------------{-------|--------------------------------|
B|-----0-----0-----------0-0-----{-------|--------------------------------|
G|---2-------2---2---0-----------{-----0-|-----0-----0--------------------|
D|---2---2-------2---2-------2---{-----2-|-----0---0--------0-0-------0---|
A|-0-------0-------3---3-----3---{-----3-|---2---2-2---2----0-2-0-0-0---0-|
E|-------------------------------{-------|-3-------3---2/3-2------2-2-3-2-|

 Bar 19
  Pause 2 sec               Bar 20
e|------{-----------------|---------------------------------|
B|------{-----------------|---------------------------------|
G|------{-0-0-0-0-0-0-0-0-|---------------------------------|
D|------{-2-2-2-2-2-2-2-2-|-0-0-0-0-0-0-0-0-0-0-0-0-0-0-0-0-|
A|------{-3-3-3-3-3-3-3-3-|-2-2-2-2-2-2-2-2-0-0-0-0-0-0-0-0-|
E|------{-----------------|-3-3-3-3-3-3-3-3-2-2-2-2-2-2-2-2-|

  Bar 21                            Bar 22                 Rest for Bar 23&24
e|---------------------------------|---------------------------------|~~~~|F
B|---------------------------------|---------------------------------|~~~~|
G|-2-2-2-2-2-2-2-2-0-0-0-0-0-0-0-0-|---------------------------------|~~~~|I
D|-2-2-2-2-2-2-2-2-2-2-2-2-2-2-2-2-|-0-0-0-0-0-0-0-0-0-0-0-0-0-0-0-0-|~~~~|
A|-0-0-0-0-0-0-0-0-3-3-3-3-3-3-3-3-|-2-2-2-2-2-2-2-2-0-0-0-0-0-0-0-0-|~~~~|N
E|---------------------------------|-3-3-3-3-3-3-3-3-2-2-2-2-2-2-2-2-|~~~~|

CHORDS 
  BARS 1-22~~  BAR 23                Bar 24
e|~~~~~~~~~~~~|---------------------|---------------------|F
B|~~~~~~~~~~~~|-----------0---0-----|---------------------|
G|~~~~~~~~~~~~|-0---0-----0-----0---|-0---------0---------|I
D|~~~~~~~~~~~~|-2-----2---2-------2-|-0---0-----0---------|
A|~~~~~~~~~~~~|-0-0-----0-3-3-------|-2---0-2---0---------|N
E|~~~~~~~~~~~~|---------------------|-3-3-----3-2-2-3-2-3-|


Happy Playing :)
Comments