Misc - Bonanza Chords & Tabs

 

Bonanza Chords & Tabs

Misc Chords & Tabs

Version: 1 Type: Tab 2 ratings
1 star 2 stars 3 stars 4 stars 5 stars
comments

Bonanza Tab

-------------------------------------------------------
-------------------------------------------------------
-------------------------------------------------------
-------------------------------------------------------
---------------------0-4-------------------------0-----
-0-0-0-0-0-0-0-0-0-0-----0-0-0-0-0-0-0-0-0-0-2-4-------
[ Tab from: http://www.guitartabs.cc/tabs/m/misc/bonanza_tab.html ]
-------------------------------------------------------
-------------------------------------------------------
-------------------------------------------------------
---------------------0-4-------------------------0-----
-0-0-0-0-0-0-0-0-0-0-----0-0-0-0-0-0-0-0-0-0-2-4-------
-------------------------------------------------------


I think this is the right tab so enjoy it
if you have anything to ask or something else
contact me: junky2000@hotmail.com
Comments