Misc - Blues Riff Chords & Tabs

 

Blues Riff Chords & Tabs

Misc Chords & Tabs

Version: 1 Type: Tab 0 ratings
1 star 2 stars 3 stars 4 stars 5 stars
comments

Blues Riff Tab

I was just playin around with my guitar and i thought this riff sounded a bit familiar.
i think it sounds best w/ a bit of reverb on.

E---------------------------------------------------------------------------
B---------------------------------------------------------------------------
G----------------------------------14---12---------------------------14--12-
D-14------14-14----14-14------14---14---12---14---14-14---14-14-14---14--12-
A-14------14-14----14-14------14-------------14---14-14---14-14-14----------
E---------------------------------------------------------------------------
[ Tab from: http://www.guitartabs.cc/tabs/m/misc/blues_riff_tab.html ]
E--------------------------------------------------------------------------)
B--------------------------------------------------------------------------)
G--14-(bend)--14-14-14-14-14--12-(bend)--12-12-12-12-12--------------------)
D--14---------14-14-14-14-14--12---------12-12-12-12-12--14---14-14-14-14--)
A--------------------------------------------------------14---14-14-14-14--)
E--------------------------------------------------------------------------)

when you pay the 14's on D and A, play them short long short long short and play
the 14's and 12's on D and G a little longer to really make it sound bluesish 
email me if you have any questions ill tab out most songs theataris2003@msn.com
Comments