Misc - Blues Exercises 2 Chords & Tabs

 

Blues Exercises 2 Chords & Tabs

Misc Chords & Tabs

Version: 1 Type: Tab 0 ratings
1 star 2 stars 3 stars 4 stars 5 stars
comments

Blues Exercises 2 Tab

   
2nd of 10

                                                    
E||-----3/-4-----3-----2--0--|-------3--2----------|
B||-----------0-----0--------|-------0--0----------|
G||-----3/-4-----3-----2-----|-------3--2----------|
D||--------------------------|---------------------|
A||--------------------------|-------3--2----------|
E||--0-----------------------|--0------------------|


                                                    
-----0-----------0-------|--3-------3--------------|
--------------3----------|-------2--------2--------|
-----------1-------------|----------------------0h-|
--------2-----------2----|-------2-----------2-----|
-------------------------|--0----------------------|
--0-----------0----------|-------------0-----------|


                                                                           
-----0-----------0-------|--4-------4------------|--0---------------------|
--------------3----------|--3-------3------------|----------------2-------|
--1--------1-------------|--4-------4------------|----------0-------------|
--------2-----------2----|-------2----------2----|-------2-----------2----|
-------------------------|-----------------------|--0---------------------|
--0-----------0----------|--0----------0---------|-------------0----------|

[ Tab from: http://www.guitartabs.cc/tabs/m/misc/blues_exercises_2_tab.html ]
                           E                       
--3----2-----0----------|--0----------------------|
----------------2-------|----------------0--------|
----------0-------------|----------0h-1--------1--|
-------2-----------2----|-------2-----------2-----|
--0----------0----------|-------------------------|
------------------------|--0----------0-----------|


                                                                          
--0---------------------|-----------------------|-------3----3--3-----0--|
------------------------|-------3----3--3-------|-------2----2--2--------|
---------------0--------|-------2----2--2-------|-------2----2--2--------|
-------2----------------|-------1----------1----|-------2----------2-----|
------------------0--1--|--2--------------------|--0---------------------|
--0---------0-----------|------------2----------|------------0-----------|


                                                                         
-----3/-4-----3-----2-----|--0---------------------|--0----------------||
-----------0-----0-----0--|-----0-----------3------|--3----------------||
-----3/-4-----3-----2-----|-----------------2------|--1----------------||
--------------------------|-----------------1------|--2----------------||
--------------------------|--------0--1--2---------|--2----------------||
--0-----------------------|--0---------------------|--0----------------||
Comments