Misc - Big House Blues Ren And Stimpy Ending Chords & Tabs

 

Big House Blues Ren And Stimpy Ending Chords & Tabs

Misc Chords & Tabs

Version: 1 Type: Tab 0 ratings
1 star 2 stars 3 stars 4 stars 5 stars
comments

Big House Blues Ren And Stimpy Ending Tab

   
Big House Blues - Ren and Stimpy End Theme :)

I don't know who wrote the original song.. if
it even is one.


This is quite a confusing song.. at first I tabbed it out like this,
but then found it cooler to play using the B pentatonic blues at
the 7th fret.. but the higher parts are pretty tough to get to
when you're down there, so I figured this is probably the correct
hand placement. Anyway, this is just my interpretation of the song.

Feel free to send corrections my way or whatever... You should
really hear the song before you play it so you can get the
rhythm down, as that's what makes the song so damn great. :)


Standard Tuning

h = hammer-on 
p = pull-off
~ = little bend
~~~~~ = big bend
/ = slide

Tabbed by Matt Carroll 2002.. mattrock@softhome.net


Play with lots of energy :)

e -----------------------------------------------------------
B --10h11h12~---12-10------------------0---------------------
G --------------------11-9-8~---9h10h11~-11-9~-7---7--7-9-9h11
D -----------------------------------------------9---9-------
A -----------------------------------------------------------
E -----------------------------------------------------------

e ---------------------12-10-----------12-12/14-12/14--------
B -10h12 12~--12p10----------12--10h12-----------------------
G ------------------11---------------------------------------
D -----------------------------------------------------------
A -----------------------------------------------------------
E -----------------------------------------------------------
[ Tab from: http://www.guitartabs.cc/tabs/m/misc/big_house_blues_ren_and_stimpy_ending_tab.html ]
e -12p10----10-----------------------------------------------
B -------12----12p10------10----------------10----12---------
G -------------------11-11---11p9----11p9------11------------
D --------------------------------12-------------------------
A -----------------------------------------------------------
E -----------------------------------------------------------

              |The part up there in these bars|
            * | is questionable.. its pretty  | *
	      |	damn fast..                   |


e -----------------------------------------------------------
B -12-10---------0--------------------------------------------
G -------11p9h11---------------------------------------------
D -----------------------------------------------------------
A -----------------------------------------------------------
E -----------------------------------------------------------

Then it repeats, but it changes in the middle before the
aforementioned tough part.

e -----------------------------------------------------------
B --10h11h12~---12-10-------------------0--------------------
G --------------------11-9-8~---9h10h11~-11-9~-7---7--7-9-9h11
D -----------------------------------------------9---9-------
A -----------------------------------------------------------
E -----------------------------------------------------------

e ---------------------12-10-----------12-12/14-12/14--------
B -10h12 12~--12p10----------12--10h12-----------------------
G ------------------11---------------------------------------
D -----------------------------------------------------------
A -----------------------------------------------------------
E -----------------------------------------------------------

here we go

e ------------------10---------------------------------------
B -12-12-10---10-12----12-10----10h12--13-12~----------------
G ----------11---------------11--------13-13~----------------
D -----------------------------------------------------------
A -----------------------------------------------------------
E -----------------------------------------------------------

the final break down is kinda fast.. I can't tab it, but good luck 
if you can. :)
Comments