Misc - Beyblade Theme Chords & Tabs

 

Beyblade Theme Chords & Tabs

Misc Chords & Tabs

Version: 1 Type: Tab 0 ratings
1 star 2 stars 3 stars 4 stars 5 stars
comments

Beyblade Theme Tab

   
This is my 1st tab so Iíve probably put loads wrong:-

E|----------4-4-4-----------2-2-2--------------4-4-4-----------2-2-2----
B|----------------------------------------------------------------------
G|----------------------------------------------------------------------
D|----------------------------------------------------------------------
A|----------------1h2-1h2-2--------------------------1h2-1h2-2----------
E|1h2-1h2-2--------------------------1h2-1h2-2--------------------------

E|--------
B|--------
G|--------
D|-66-88-9
A|-66-88-9
E|-44-66-7

E|------------------------------------------------
B|------------------------------------------------
G|------------xx4xx4xx4xx4------------xx4xx4xx4xx4
D|xx4xx4xx4xx4xx4xx4xx4xx4xx4xx4xx4xx4xx4xx4xx4xx4
A|xx4xx4xx4xx4xx2xx2xx2xx2xx4xx4xx4xx4xx2xx2xx2xx2
E|xx2xx2xx2xx2------------xx2xx2xx2xx2------------

E|-----
B|-----
G|8x6x4
D|8x6x4
A|6x4x2
E|-----
[ Tab from: http://www.guitartabs.cc/tabs/m/misc/beyblade_theme_tab.html ]
E|----------4-4-4-----------2-2-2
B|-------------------------------
G|-------------------------------
D|-------------------------------
A|----------------1h2-1h2-2------
E|1h2-1h2-2----------------------

E|------------------------------------------------
B|------------------------------------------------
G|------------xx4xx4xx4xx4------------xx6xx6xx6xx6
D|xx4xx4xx4xx4xx4xx4xx4xx4xx6xx6xx6xx6xx6xx6xx6xx6
A|xx4xx4xx4xx4xx2xx2xx2xx2xx6xx6xx6xx6xx4xx4xx4xx4
E|xx2xx2xx2xx2------------xx4xx4xx4xx4------------

E|---------------------
B|---------------------
G|8x6x4--8x6x4--66-88-9
D|8x6x4--8x6x4--66-88-9
A|6x4x2--6x4x2--44-66-7
E|---------------------

E|---------17-----------------17------
B|------------------------------------
G|------------------------------------
D|------------------------------------
A|------------------------------------
E|2-2--5-7----5-7-5--2-2--5-7----5-7-5

E|------------------------------------
B|------------------------------------
G|------------------------------------
D|4-4--7-9--7-9-7-4-4--7-9--7-9-7-4--4
A|4-4--7-9--7-9-7-4-4--7-9--7-9-7-4--4
E|2-2--5-7--5-7-5-2-2--5-7--5-7-5-2--2
Comments