Misc - Bass Licks Heavy Metal Chords & Tabs

 

Bass Licks Heavy Metal Chords & Tabs

Misc Chords & Tabs

Version: 1 Type: Bass Tab 0 ratings
1 star 2 stars 3 stars 4 stars 5 stars
comments

Bass Licks Heavy Metal Bass Tab

   
owkay then, I'm gonna add some licks. I am not good at rhythm but this is my key:
/ slide up
\ slide down
: repeat
6h7 hammer-on
7p6 pull-of
6^bend
5~vibrato
x- ghost note
5+ harmonic

Rhytms:
w - whole note
h - half note
q - quarter note
e - eight note
s - sixteenth note
e
. - stacatto
wr - whole rest
hr - half rest
qr - quarter rest
er - eight rest
%  - sixteenth rest
w. - not a whole, but a whole and a half
[ Tab from: http://www.guitartabs.cc/tabs/m/misc/bass_licks_heavy_metal_btab.html ]
Lick 1
  e sse ss e sse ss e sse ss ss sss ss 
G-------------------------------------|
D------------------------------------:|
A-0-000-00----------------------320--:|
E----------3-333-33-2-222-22-101---34-|
lick 2
 % sssssse sssssse sssssse sssssss
G------------------------------------|
D-----------------------------------:|
A-----2--3----5--7----2--3----5--7--:|
E--000-00--000-00--000-00--000-00----|
lick 3, uses triplet feel.
  [   ] [    ][    ][   ][    ][    ] [     ]
  e ere e e e e ere e e e e ere e e e q  q q
G---------------------------------------------|
D-0---0-0-0-0-0---0-0-0-0-0---0-0-0-0----3-2-:|
A-------------------------------------3------:|
E---------------------------------------------|
lick 4
  e e e e e e e e  w
G---------------10-9------|
D-------3-2/9-8----------:|
A---2-1------------------:|
E-0-----------------------|

enjoy tabbed by justin van uum
Comments