Misc - Basic Band Blues Chords & Tabs

 

Basic Band Blues Chords & Tabs

Misc Chords & Tabs

Version: 1 Type: Bass Tab 0 ratings
1 star 2 stars 3 stars 4 stars 5 stars
comments

Basic Band Blues Bass Tab

This is that big of a song but its a great warm-up to get your fingers moving.


 #1
G|--------------------------------------| (x1)
D|--------------------------------------|
A|-----2-4-5-4-2---------2-4-5-4-2------|
E|-0-4-----------4-0-0-4-----------4-0--|
[ Tab from: http://www.guitartabs.cc/tabs/m/misc/basic_band_blues_btab.html ]
 #2
G|--------------------------------------| (x1)
D|-----2-4-5-4-2---------2-4-5-4-2------|
A|-0-4-----------4-0-0-4----------4-0---|
E|--------------------------------------|

Now you can play this as much as you want just keep going from the first to the second
Comments