Misc - Barre Chords Chords & Tabs

 

Barre Chords Chords & Tabs

Misc Chords & Tabs

Version: 2 Type: Tab 9 ratings
1 star 2 stars 3 stars 4 stars 5 stars
comments

Barre Chords Tab

   
Maj Barre Chords

  E  F  F#  G  G#  A  A#  B  C  C#  D  D# 
e-0--1--2---3--4---5--6---7--8--9---10-11---------
B-0--1--2---3--4---5--6---7--8--9---10-11---------
G-1--2--3---4--5---6--7---8--9--10--11-12---------
D-2--3--4---5--6---7--8---9--10-11--12-13---------
A-2--3--4---5--6---7--8---9--10-11--12-13---------
E-0--1--2---3--4---5--6---7--8--9---10-11---------
 
 A  A#  B  C  C# D  D#  E  F  F#  G  G#
e-0--1--2--3--4--5---6--7--8--9--10-11------------
B-2--3--4--5--6--7---8--9--10-11-12-13------------
G-2--3--4--5--6--7---8--9--10-11-12-13------------
D-2--3--4--5--6--7---8--9--10-11-12-13------------
A-0--1--2--3--4--5---6--7--8--9--10-11------------
E-------------------------------------------------

Min Barre Chords

  E  F  F#  G  G#  A  A#  B  C  C#  D  D# 
e-0--1--2---3--4---5--6---7--8--9---10-11---------
B-0--1--2---3--4---5--6---7--8--9---10-11---------
G-0--1--2---3--4---5--6---7--8--9---10-11---------
D-2--3--4---5--6---7--8---9--10-11--12-13---------
A-2--3--4---5--6---7--8---9--10-11--12-13---------
E-0--1--2---3--4---5--6---7--8--9---10-11---------

  A  A#  B C  C# D   D# E  F  F#  G   G#
e-0--1--2--3--4--5---6--7--8--9---10--11------------
B-1--2--3--4--5--6---7--8--9--10--11--12------------
G-2--3--4--5--6--7---8--9--10-11--12--13------------
D-2--3--4--5--6--7---8--9--10-11--12--13------------
A-0--1--2--3--4--5---6--7--8--9---10--11------------
E---------------------------------------------------
[ Tab from: http://www.guitartabs.cc/tabs/m/misc/barre_chords_tab_ver_2.html ]
Maj 7th Barre Chords

  E  F  F#  G  G#  A  A#  B  C  C#  D  D# 
e-0--1--2---3--4---5--6---7--8--9---10-11---------
B-0--1--2---3--4---5--6---7--8--9---10-11---------
G-1--2--3---4--5---6--7---8--9--10--11-12---------
D-0--1--2---3--4---5--6---7--8--9---10-11---------
A-2--3--4---5--6---7--8---9--10-11--12-13---------
E-0--1--2---3--4---5--6---7--8--9---10-11---------

  A A#  B  C  C# D  D# E  F  F# G   G#
e-0--1--2--3--4--5--6--7--8--9--10--11------------
B-2--3--4--5--6--7--8--9--10-11-12--13------------
G-0--1--2--3--4--5--6--7--8--9--10--11------------
D-2--3--4--5--6--7--8--9--10-11-12--13------------
A-0--1--2--3--4--5--6--7--8--9--10--11------------
E-------------------------------------------------

Min 7th Barre Chords

  E  F  F#  G  G#  A  A#  B  C  C#  D  D# 
e-0--1--2---3--4---5--6---7--8--9---10-11---------
B-0--1--2---3--4---5--6---7--8--9---10-11---------
G-0--1--2---3--4---5--6---7--8--9---10-11---------
D-0--1--2---3--4---5--6---7--8--9---10-11---------
A-2--3--4---5--6---7--8---9--10-11--12-13---------
E-0--1--2---3--4---5--6---7--8--9---10-11---------

  A  A#  B C  C# D   D# E  F  F#  G   G#
e-0--1--2--3--4--5---6--7--8--9---10--11------------
B-1--2--3--4--5--6---7--8--9--10--11--12------------
G-2--3--4--5--6--7---8--9--10-11--12--13------------
D-2--3--4--5--6--7---8--9--10-11--12--13------------
A-0--1--2--3--4--5---6--7--8--9---10--11------------
E---------------------------------------------------
Comments