Misc - Barre Chords Chords & Tabs

 

Barre Chords Chords & Tabs

Misc Chords & Tabs

Version: 1 Type: Tab 3 ratings
1 star 2 stars 3 stars 4 stars 5 stars
comments

Barre Chords Tab

   
major and minor barre chords



Major Barre Chords
     F  G  A  B  C   D   E                                    
E +-1--3--5--7--8---10--12---------------------------------+
B |-1--3--5--7--8---10--12---------------------------------|
G |-2--4--6--8--9---11--13---------------------------------|
D |-3--5--7--9--10--12--14---------------------------------|
A |-3--5--7--9--10--12--14---------------------------------|
E +-1--3--5--7--8---10--12---------------------------------+
 
More Major Chords
    B  C  D  E  F   G   A                                   
E +-2--3--5--7--8---10--12---------------------------------+
B |-4--5--7--9--10--12--14---------------------------------|
G |-4--5--7--9--10--12--14---------------------------------|
D |-4--5--7--9--10--12--14---------------------------------|
A |-2--3--5--7--8---10--12---------------------------------|
E +- -- ---------------------------------------------------+
[ Tab from: http://www.guitartabs.cc/tabs/m/misc/barre_chords_tab.html ]
Minor Barre Chords
     F  G  A  B  C   D   E                                    
E +-1--3--5--7--8---10--12---------------------------------+
B |-1--3--5--7--8---10--12---------------------------------|
G |-1--3--5--7--8---10--12---------------------------------|
D |-3--5--7--9--10--12--14---------------------------------|
A |-3--5--7--9--10--12--14---------------------------------|
E +-1--3--5--7--8---10--12---------------------------------+
 
More Minor Chords
    B  C  D  E  F   G   A                                   
E +-2--3--5--7--8---10--12---------------------------------+
B |-3--4--6--8--9---11--13---------------------------------|
G |-4--5--7--9--10--12--14---------------------------------|
D |-4--5--7--9--10--12--14---------------------------------|
A |-2--3--5--7--8---10--12---------------------------------|
E +--------------------------------------------------------+

http://www.mikemurphy.net/GuitarLessons/lessons/lesson20.htm
Comments