Misc - Baazigar Chords & Tabs

 

Baazigar Chords & Tabs

Misc Chords & Tabs

Version: 1 Type: Tab 0 ratings
1 star 2 stars 3 stars 4 stars 5 stars
comments

Baazigar Tab

Baazigar
Baazigar




e----------------------------------------------------------------------
b--2---2-2-0-3--2-0-----2-0-----0-----------------------------------------
g--------------------2------2-1----2-1----2-1-----1-----------------------    
D---------------------------------------4------4-2----4--2--0-2-0---------
A----------------------------------------------------------------------
E-------------------------------------------------------------------------

[ Tab from: http://www.guitartabs.cc/tabs/m/misc/baazigar_tab.html ]
e-----------------------------------------------------------------------
b------------------------------------0---------------------------------
g---------------------------------1----3--1---2--1----------------------------------
d-----0-1--2-2--2-3--4--------------3---------------4------------------------------------
a--4-4-------------------------4-------------------------------------------------
E------------------------------------------------------------------------------

work out the rhythm for urself


Dev Mehta
 
Comments