Misc - Apache Chords & Tabs

 

Apache Chords & Tabs

Misc Chords & Tabs

Version: 1 Type: Tab 0 ratings
1 star 2 stars 3 stars 4 stars 5 stars
comments

Apache Tab

                          APACHE
   

[ Tab from: http://www.guitartabs.cc/tabs/m/misc/apache_tab.html ]
the background guitar just plays Am and D through out the whole song
                                                      
Intro:
e----0------------------2----------8--6----I
a----1------------------3----------------7-I
d----2------5--7b9------2-------5----------I
g----2----7-------------0-----7------------I      X2
b----0------------------0------------------I
e----0-------------------------------------I
   riff 1     x2                                        Riff2
e------------------------------I   e----------------------------------I
b------------------------------I   b----------------------------------I
g------------------------------I   g----7-7-7-7-7---7--4--------------I
d----7-7-7-7-7--7--4-----------I   d--7------------7--------7--5--7---I
a--7-----------7-------7--5--7-I   a----------------------------------I
e------------------------------I   e----------------------------------I
        riff 3                             x1 then repeat riff 1 once
e--------------------------------------------I
b--------------------------------------------I
g--------------------------------------------I
d----4-4-4-4--4-4-4-4--4-4-4-4--4-4-4-4---3--I  x2
a--4---------4--------4--------4---------0---I
e--------------------------------------------I
   riff4
e-----------------------------I
b------1-0--1--3--5--3--1-----I
g----2----------------------2-I  x1
d--3--------------------------I
a-----------------------------I
e-----------------------------I
  riff 5
e--------------------I
b------1--0-1--3-----I
g----2------------0--I
d--3-----------------I    x1 then play riff4 one more time
a--------------------I
e--------------------I

then play riff 3 then riff 1 and 2 then riff 4 an 5 then riff 3 and then the intro.



Comments