Misc - Angel Chords & Tabs

 

Angel Chords & Tabs

Misc Chords & Tabs

Version: 1 Type: Tab 1 rating
1 star 2 stars 3 stars 4 stars 5 stars
comments

Angel Tab

Song: Angel Theme
Tabbed By: Tim Barr
MX ID: SpADeD
Date: 1/25/04
                                                                  
E||------------------------|
B||-------------2----1--0--|
G||----------0-------------|
D||--2----4----------------|
A||------------------------|
E||------------------------|


                                                                
---------------------|--------------------|--------------------|
---------------------|--------------------|--------------------|
------2--0-----------|--------------------|--0-----------------|
----------------4----|--2--------3--------|--------------------|
---------------------|--------------------|-----------4--------|
---------------------|--------------------|--------------------|


                                                                  
------------------------|----------1--------|--3-----------------|
-------------2----1--0--|-------------------|-----------2--------|
----------0-------------|-------------------|--------------------|
--2----4----------------|-------------------|--------------------|
------------------------|-------------------|--------------------|
------------------------|-------------------|--------------------|

[ Tab from: http://www.guitartabs.cc/tabs/m/misc/angel_tab.html ]
                                                                             
-------------------|
--1----------------|
-------------------|
-------------------|
-------------------|
-------------------|


                                                                               
|--------------------------------|--------------------------|
|--0----1----0---------3----1----|--0-----------------------|
|-----------------2--------------|-----------2----0---------|
|--------------------------------|---------------------4----|
|--------------------------------|--------------------------|
|--------------------------------|--------------------------|


                                                                      
----------------------------|----------1--------|--3-----------------|
-----------------2----1--0--|-------------------|-----------2--------|
------------0---------------|-------------------|--------------------|
--2----4--------------------|-------------------|--------------------|
----------------------------|-------------------|--------------------|
----------------------------|-------------------|--------------------|


                                                                             
-------------------|
--1----------------|
-------------------|
-------------------|
-------------------|
-------------------|                                       

Comments