Misc - Airmans Theme Megaman Chords & Tabs

 

Airmans Theme Megaman Chords & Tabs

Misc Chords & Tabs

Version: 1 Type: Tab 0 ratings
1 star 2 stars 3 stars 4 stars 5 stars
comments

Airmans Theme Megaman Tab

Song: Megaman 2: Airman's Theme
Tabbed By: Tim Barr
MX ID: SpADeD
Date: 1/25/04

                                                                         
E||-------4--3----2----1--|----4----3----2------|--1--------1-----------|
B||--6--------------------|---------------------|--------------4--2--1--|
G||-----------------------|---------------------|-----------------------|
D||-----------------------|---------------------|-----------------------|
A||-----------------------|---------------------|-----------------------|
E||-----------------------|---------------------|-----------------------|


                                                                      
------------------------|------4--3----2----1--|----4----3----2------|
----2--4----------1-----|----------------------|---------------------|
----------1----3-----3--|----------------------|---------------------|
------------------------|----------------------|---------------------|
------------------------|----------------------|---------------------|
------------------------|----------------------|---------------------|


                                                                           
--1--------1-----------|------------------------|-------------------------|
--------------4--2--1--|----2--4----------1-----|-------1-----2-----4-----|
-----------------------|----------1----3-----3--|----3-----3-----3-----3--|
-----------------------|------------------------|-------------------------|
-----------------------|------------------------|-------------------------|
-----------------------|------------------------|-------------------------|


                                                                        
--8--8--8--8--8--8----6--|-----------4--6----6--|----6-------4----5----|
-------------------------|--------6-------------|---------6------------|
-------------------------|----------------------|----------------------|
-------------------------|----------------------|----------------------|
-------------------------|----------------------|----------------------|
-------------------------|----------------------|----------------------|


                                                                       
--6------4----6------|--13---------------------|--------------4----4--|
---------------------|------------11--10----9--|-----------6----------|
---------------------|-------------------------|--------8-------------|
---------------------|-------------------------|----------------------|
---------------------|-------------------------|----------------------|
---------------------|-------------------------|----------------------|


                                                                       
----4--2--4----8--6--4--|--4-----------1------|----4--4----4--5----6--|
------------------------|---------4-----------|-----------------------|
------------------------|---------------------|-----------------------|
------------------------|---------------------|-----------------------|
------------------------|---------------------|-----------------------|
------------------------|---------------------|-----------------------|


                                                                          
----4-----6--8--6--9--11--|--12-13--16--13-16-17-18-21-20-18-16-17-18-16-|
-------6------------------|----------------------------------------------|
--------------------------|----------------------------------------------|
--------------------------|----------------------------------------------|
--------------------------|----------------------------------------------|
--------------------------|----------------------------------------------|


                                                  
------------------------|------------------------|
--18------16------------|------------------------|
------------------18----|----17------15----13----|
------------------------|------------------------|
------------------------|------------------------|
------------------------|------------------------|


                                                          
------------15-16-----22-23---|--------20----19--18--16--|
--15-16-----------------------|--------------------------|
------------------------------|--------------------------|
------------------------------|--------------------------|
------------------------------|--------------------------|
------------------------------|--------------------------|


                                                   
--14-13-14-16-18-16-18-20-21-20-21-23-25-23-25-26-|
--------------------------------------------------|
--------------------------------------------------|
--------------------------------------------------|
--------------------------------------------------|
--------------------------------------------------|


                                                                        
---24-23-22-21-23-24-24-23-22---------------|--------------------------|
--------------------------------------------|--------------------------|
--------------------------------------------|--------------------------|
------------------------------23--22----20--|----20--20--18--20--------|
--------------------------------------------|--------------------------|
--------------------------------------------|--------------------------|


                                                    
------------------------------|--------------------|
--------------------------18--|----16--------------|
--------------------18--------|--------------------|
--20----20--18--20------------|--------------------|
------------------------------|--------------------|
------------------------------|--------------------|


                                                       
--16----14----13----11------|-------------------------|
------------------------11--|----11--11--9--11--------|
----------------------------|-------------------------|
----------------------------|-------------------------|
----------------------------|-------------------------|
----------------------------|-------------------------|

[ Tab from: http://www.guitartabs.cc/tabs/m/misc/airmans_theme_megaman_tab.html ]
                                                                               
-------------------9----13--|----11------11--8----13--|-----------------------|
--11----11--9--11-----------|-------------------------|-----------------------|
----------------------------|-------------------------|----------10--------8--|
----------------------------|-------------------------|--------------11-------|
----------------------------|-------------------------|-----------------------|
----------------------------|-------------------------|-----------------------|


                                                                       
------------------------|----4----3----2------|--1--------1-----------|
--------9--8----7----6--|---------------------|--------------4--2--1--|
--10--------------------|---------------------|-----------------------|
------------------------|---------------------|-----------------------|
------------------------|---------------------|-----------------------|
------------------------|---------------------|-----------------------|


                                                                      
------------------------|------4--3----2----1--|----4----3----2------|
----2--4----------1-----|----------------------|---------------------|
----------1----3-----3--|----------------------|---------------------|
------------------------|----------------------|---------------------|
------------------------|----------------------|---------------------|
------------------------|----------------------|---------------------|


                                                                           
--1--------1-----------|------------------------|-------------------------|
--------------4--2--1--|----2--4----------1-----|-------1-----2-----4-----|
-----------------------|----------1----3-----3--|----3-----3-----3-----3--|
-----------------------|------------------------|-------------------------|
-----------------------|------------------------|-------------------------|
-----------------------|------------------------|-------------------------|


                                                                        
--8--8--8--8--8--8----6--|-----------4--6----6--|----6-------4----5----|
-------------------------|--------6-------------|---------6------------|
-------------------------|----------------------|----------------------|
-------------------------|----------------------|----------------------|
-------------------------|----------------------|----------------------|
-------------------------|----------------------|----------------------|


                                                                       
--6------4----6------|--13---------------------|--------------4----4--|
---------------------|------------11--10----9--|-----------6----------|
---------------------|-------------------------|--------8-------------|
---------------------|-------------------------|----------------------|
---------------------|-------------------------|----------------------|
---------------------|-------------------------|----------------------|


                                                                       
----4--2--4----8--6--4--|--4-----------1------|----4--4----4--5----6--|
------------------------|---------4-----------|-----------------------|
------------------------|---------------------|-----------------------|
------------------------|---------------------|-----------------------|
------------------------|---------------------|-----------------------|
------------------------|---------------------|-----------------------|


                                                                          
----4-----6--8--6--9--11--|--12-13--16--13-16-17-18-21-20-18-16-17-18-16-|
-------6------------------|----------------------------------------------|
--------------------------|----------------------------------------------|
--------------------------|----------------------------------------------|
--------------------------|----------------------------------------------|
--------------------------|----------------------------------------------|


                                                  
------------------------|------------------------|
--18------16------------|------------------------|
------------------18----|----17------15----13----|
------------------------|------------------------|
------------------------|------------------------|
------------------------|------------------------|


                                                          
------------15-16-----22-23---|--------20----19--18--16--|
--15-16-----------------------|--------------------------|
------------------------------|--------------------------|
------------------------------|--------------------------|
------------------------------|--------------------------|
------------------------------|--------------------------|


                                                   
--14-13-14-16-18-16-18-20-21-20-21-23-24-23-24-24-|
--------------------------------------------------|
--------------------------------------------------|
--------------------------------------------------|
--------------------------------------------------|
--------------------------------------------------|


                                                                        
---24-24-24-24-22-23-24-23-22---------------|--------------------------|
--------------------------------------------|--------------------------|
--------------------------------------------|--------------------------|
------------------------------23--22----20--|----20--20--18--20--------|
--------------------------------------------|--------------------------|
--------------------------------------------|--------------------------|


                                                    
------------------------------|--------------------|
--------------------------18--|----16--------------|
--------------------18--------|--------------------|
--20----20--18--20------------|--------------------|
------------------------------|--------------------|
------------------------------|--------------------|


                                                       
--16----14----13----11------|-------------------------|
------------------------11--|----11--11--9--11--------|
----------------------------|-------------------------|
----------------------------|-------------------------|
----------------------------|-------------------------|
----------------------------|-------------------------|


                                                                                
-------------------9----13--|----11------11--8----13--|-----------------------||
--11----11--9--11-----------|-------------------------|-----------------------||
----------------------------|-------------------------|----------10--------8--||
----------------------------|-------------------------|--------------11-------||
----------------------------|-------------------------|-----------------------||
----------------------------|-------------------------|-----------------------||


Comments