Misc - Advanced Blues Riff Chords & Tabs

 

Advanced Blues Riff Chords & Tabs

Misc Chords & Tabs

Version: 1 Type: Tab 0 ratings
1 star 2 stars 3 stars 4 stars 5 stars
comments

Advanced Blues Riff Tab

            Sorry dude i already sent this in i just wanted to see if it gets posted-thanx brah

blues Riff

Standard Tuning
crzybmxer
if you have any corrections then just email me @ crzybmxer79@netscape.net
[ Tab from: http://www.guitartabs.cc/tabs/m/misc/advanced_blues_riff_tab.html ]
    1-e-&-a-1-e-&-a-1-e-&-a-1-e-&-a-1-e-&-a-1-e-&-a-1-&-a-1-&-a-1-&-a-1---|-a
e-------------------------------------------------------------------------|
B-------------------------------------------------------------------------|
G-----------------------------------2-2-4-4-2-2-4-4-4-2---2---------------|
D---2-2-4-4-2-2-4-4-2-2-4-4-2-2-4-4-0-0-0-0-0-0-0-0-----4--4-2-4-2--2-----|
A---0-0-0-0-0-0-0-0-0-0-0-0-0-0-0-0--------------------------------4--4-2-|
E-------------------------------------------------------------------------|


  1-e-&-a-1-e-&-a-1-e-&-a-1-e-&-a-1-e-&-a-1-e-&-a-1-e-&-a-1-&-a-1-----|-a
e---------------------------------------------------------------------|
B---------------------------------------------------------------------|
G---------------------------------------------------------------------|
D-2-2-4-4-2-2-4-4-2-2-4-4-2-2-4-4---------------------------------2-4-| Repeat
A-0-0-0-0-0-0-0-0-0-0-0-0-0-0-0-0-2-2-4-4-2-2-4-4-0-0-2-2-----2-4-----|
E---------------------------------0-0-0-0-0-0-0-0-0-0-0-0-2-4---------|

hope you like it
Comments