Misc - 2 James Bond Themes Chords & Tabs

 

2 James Bond Themes Chords & Tabs

Misc Chords & Tabs

Version: 1 Type: Tab 10 ratings
1 star 2 stars 3 stars 4 stars 5 stars
comments

2 James Bond Themes Tab

Wazza? This is 2 of James Bonds many themes. They're incredibly easy (all
James Bond themes are) and even people who are just starting to learn guitar
and tabs should be able to play these.

Submitted by: Punkgod2003(email: michaelmce@msn.com)

First Theme
-------------------------------------------------------------------
-------------------------------------------------------------------
-------------------------------------------------------------------
-------------------------------------------------------------------
-------------------------------------------------------------------
--0--222--000--0--333--222-----0--222--000--0--333--222------------

[ Tab from: http://www.guitartabs.cc/tabs/m/misc/2_james_bond_themes_tab.html ]
-----------------------------------
-----------------------------------
-1--0------------------------------
--------2--0--2--------------------
-----------------------------------
-----------------------------------
See? Wasn't that easy?


Second Theme
--2-----2-----3-----3-----4-----4-----3-----3----------------------
-----0-----0-----0-----0-----0-----0-----0-----0-------------------
-------------------------------------------------------------------
-------------------------------------------------------------------
-------------------------------------------------------------------
-------------------------------------------------------------------
Play that as many times as you want.
See? Wasn't that even easier?

Happy Rockings,
               Punkgod2003

 
Comments