Misc - 12 Bar Blues Chords & Tabs

 

12 Bar Blues Chords & Tabs

Misc Chords & Tabs

Version: 2 Type: Tab 0 ratings
1 star 2 stars 3 stars 4 stars 5 stars
comments

12 Bar Blues Tab

   
-------------------------------------------------------------------------------
			     SONG NAME - Band Name
-------------------------------------------------------------------------------
Tabbed by: Poke'scab
Email: pokescab@hotmail.com

Tuning:

e|-----------------------------------------------------------------------------|
B|-----------------------------------------------------------------------------|
G|-----------------------------------------------------------------------------|
D|---------------------2--------3-------2--------------------------------x2----|
A|-------2------5-------------------------------5-------2----------------------|
E|--3--------------------------------------------------------------------------|


e|-----------------------------------------------------------------------------|
B|-----------------------------------------------------------------------------|
D|---------------------2--------3-------2--------------------------------x1----|
G|-------2------5-------------------------------5-------2----------------------|
A|--3--------------------------------------------------------------------------|
E|-----------------------------------------------------------------------------|
[ Tab from: http://www.guitartabs.cc/tabs/m/misc/12_bar_blues_tab_ver_2.html ]
e|-----------------------------------------------------------------------------|
B|-----------------------------------------------------------------------------|
G|-----------------------------------------------------------------------------|
D|---------------------2--------3-------2--------------------------------x1----|
A|-------2------5-------------------------------5-------2----------------------|
E|--3--------------------------------------------------------------------------|

e|------------------------------------------------------------------------------|
B|------------------------------------------------------------------------------|
G|---------------------------4-------------------------2------------------------|
D|-----------4--------7-------------------2-----5-------------------------2-----|
A|---5------------------------------3----------------------------2----5---------|
E|----------------------------------------------------------3-------------------|

And you can repeat it. Again and Again.

Play this song really fast to warm up your fingers prictice your speed.

This song also sounds really great on electric/ acoustic guitars (not bass)
Copyright Afro Aldi
| /  slide up
| \  slide down
| h  hammer-on
| p  pull-off
| ~  vibrato
| +  harmonic
| x  Mute note
===============================================================================
Comments