Misc - 12 Bar Blues Chords & Tabs

 

12 Bar Blues Chords & Tabs

Misc Chords & Tabs

Version: 1 Type: Tab 0 ratings
1 star 2 stars 3 stars 4 stars 5 stars
comments

12 Bar Blues Tab

Here's a 12 bar blues thing that i learnt! enjoy...

e|-------------5--|
B|-------------5--|
G|-------------5--|
D|------5h7-------| x4
A|--5h7-----------|
E|----------5-----|

e|----------------10--|
B|----------------10--|
G|----------------10--|
D|-------10h12--------| x2
A|--10h12-------------|
E|-------------10-----|

e|-------------5--|
B|-------------5--|
G|-------------5--|
D|------5h7-------| x2
A|--5h7-----------|
E|----------5-----|
[ Tab from: http://www.guitartabs.cc/tabs/m/misc/12_bar_blues_tab.html ]
e|----------------12--|
B|----------------12--|
G|----------------12--|
D|-------12h14--------|
A|--12h14-------------|
E|-------------12-----|

e|-------------5--|
B|-------------5--|
G|-------------5--|
D|------5h7-------|x2
A|--5h7-----------|
E|----------5-----|

e|----------------12--|
B|----------------12--|
G|----------------12--|
D|-------12h14--------|
A|--12h14-------------|
E|-------------12-----|
or
turnaround

e|-----------------2--|
B|-----------------2--|
G|-----------------2--|
D|-------5h7-----2----|
A|--5h7--------2------|
E|-----------0--------|
Comments