Misc - 12 Bar Blues Chords & Tabs

 

12 Bar Blues Chords & Tabs

Misc Chords & Tabs

Version: 1 Type: Bass Tab 0 ratings
1 star 2 stars 3 stars 4 stars 5 stars
comments

12 Bar Blues Bass Tab

   
Row of r-repeat once
Row of R-repeat whole song
[ Tab from: http://www.guitartabs.cc/tabs/m/misc/12_bar_blues_btab.html ]
		G					C
G------------------------------------------r-----------------2---3--2-----------------
D------------------2---3--2----------------r--------2--5--------------------5--2-----
A--------2---5-----------------5----2------r---3--------------------------------------
E---3--------------------------------------r--------------------------------------------
		G			      D			   C
G---------------------------------------------------------4--------------------2----R
D--------------------2--3--2-------------------4---7-----------------2--5------------R
A---------2---5-----------------5---------5---------------------3--------------------R
E----3-------------------------------------------------------------------------------R


Really Easy and sounds cool with guitar accompaniment 





Comments