Misanthrope - Visionnaire Chords & Tabs

 

Visionnaire Chords & Tabs

Misanthrope Chords & Tabs

Version: 1 Type: Tab 0 ratings
1 star 2 stars 3 stars 4 stars 5 stars
comments

Visionnaire Tab

                        MISANTHROPE - "VISIONNAIRE"
                            Album "Visionnaire"

=>Transcribed by The Pastor from France

INTRO :
   GUITAR 1
|-------------------------------------------------|
|-------------------------------------------------|
|-------------------------------------------------|
|--------7----------7----------10----------5------|
|----5-5---5----5-5---5----8-8----8----6-6---6----|
|-------------------------------------------------|

   GUITAR 2
|--------------------------------------------------|
|--------------------------------------------------|
|--------------------------------------------------|
|--------7-7--------7-7--------10-10--------5-5----|
|----5-5--------5-5--------8-8----------6-6--------|
|--------------------------------------------------|



RIFF 1 :
   BOTH GUITARS
|----------------------------------------------|
|----------------------------------------------|
|--------------------------------10----8-------|
|----/7----5-7-7h8--7---------10----------8----|
|----------------------5----8------------------|
|----------------------------------------------|

|-----------------------------------------------|
|-----------------------------------------------|
|--------------------------------10--/12--------|
|----/7----5-7-7h8--7---------10----------13----|
|----------------------5----8-------------------|
|-----------------------------------------------|



RIFF 2 :
   BOTH GUITARS (UNDER SYNTH PART)
|-----------------------------------------------------|
|-----------------------------------------------------|
|-----------------------------------------------------|
|-----------------------------------------------------|
|----6-6-6-6----8-8-8-8----10-10-10-10-10-10-10-10----|
|----4-4-4-4----6-6-6-6----8--8--8--8--8--8--8--8-----|
     . . . .    . . . .    .  .  .  .  .  .  .  .

|---------------------------------------------|
|---------------------------------------------|
|---------------------------------------------|
|---------------------------------------------|
|----6-6-6-6----8-8-8-8----5-5-5-5-5-5-5-5----|
|----4-4-4-4----6-6-6-6----3-3-3-3-3-3-3-3----|
     . . . .    . . . .    . . . . . . . .


RIFF 3 :
   GUITAR 1
|-------------------------------------|
|-------------------------------------|
|-------------------------------------|
|------------a.h.-----7--7\6--6--5----|
|----4--3-----5-------7--7\6--6--5----|
|----------4-------0--5--5\4--4--3----|
     .  .  .       .

|-----------------------------------------------------|
|-----------------------------------------------------|
|-----------------------------------------------------|
|------------a.h.-----7--7\6----5-5--4-4--------------|
|----4--3-----5-------7--7\6--------------3-3--2-2----|
|----------4-------0--5--5\4--------------------------|
     .  .  .       .            . .  . .  . .  . .

   GUITAR 2
|--------------------------------------------------|
|--------------------------------------------------|
|--------------------------------------------------|
|--------5--------------5----5-5--4-4--------------|
|----5-5-5----------5-5-5--------------3-3--2-2----|
|----3-3-3----------3-3-3--------------------------|
     . . .          . . .    . .  . .  . .  . .


RIFF 4 :
   BOTH GUITARS
|----------------------------------------------|
|----------------------------------------------|
|----------------------------------------------|
|------------a.h.-----7--7\6--6--5-------------|
|----4--3-----5-------7--7\6--6--5-------------|
|----------4-------0--5--5\4--4--3----0-0-0----|
     .  .  .       .                  . . .

|-----------------------------------------------------|
|-----------------------------------------------------|
|-----------------------------------------------------|
|------------a.h.-----7--7\6----5-5--4-4--------------|
|----4--3-----5-------7--7\6--------------3-3--2-2----|
|----------4-------0--5--5\4--------------------------|
     .  .  .       .            . .  . .  . .  . .


[ Tab from: http://www.guitartabs.cc/tabs/m/misanthrope/visionnaire_tab.html ]
RIFF 5 :
   GUITAR 1
|----------------------------------------------|
|----------------------------------------------|
|----------------------------------------------|
|----/9--------------------9-------------------|
|--------10-----------/10-----12--10--10h12----|
|------------12--8-----------------------------|

|---------------------------------------|
|---------------------------------------|
|---------------------------------------|
|----/9--------------------12--10--9----|
|--------10-----------/10---------------|
|------------12--8----------------------|


   GUITAR 2 (2nd Time) approx the solo...
|-----------------------------------------------------------------------|
|----/17----15--------------------17------------------------------------|
|--------------16--------------16----19---------------------------------|
|------------------------17h19-----------------16h17p16--19-17-19-16----|
|------------------17h19-----------------17h19--------------------------|
|-----------------------------------------------------------------------|

|-----------------------------------------------------------------------|
|----/17--17--19-19/20\19-17-15/17--------------------------------------|
|-----------------------------------------16-19-17-16----16-------------|
|-----------------------------------17h19-------------19----------------|
|-----------------------------------------------------------14h15p14----|
|-----------------------------------------------------------------------|



RIFF 6 :
   GUITAR 1
|-----------------------------------------------------------------------|
|-----------------------------------------------------------------------|
|--------------------6--6----5--5----8--8------8-8------6--6----5--5----|
|----7--7----6--6----6--6----5--5----8--8------8-8------6--6----5--5----|
|----7--7----6--6----4--4----3--3----6--6------6-6------4--4----3--3----|
|----5--5----4--4-------------------------------------------------------|

   GUITAR 2 (2nd Time)
|---------------------------------------------------------------|
|-----------------------------------------------11--------------|
|------------------------------------------9/12-----9/12--12----|
|----14-14-14-14.....-13-12-11----------------------------------|
|------------------------------15-14-13-------------------------|
|---------------------------------------------------------------|
      .  .  .  .
|---------------------------------------------------------------|
|-----------------------------------------------11--------11----|
|------------------------------------------9/12-----9/12--------|
|----14-14-14-14.....-13-12-11----------------------------------|
|------------------------------15-14-13-------------------------|
|---------------------------------------------------------------|
      .  .  .  .


OUTRO :
   BOTH GUITARS
|-------------------------------------------------------------------------|
|-------------------------------------------------------------------------|
|-------------------------------------------------------------------------|
|-------------------------------------------------------------------------|
|-------------------------------------------------------------------------|
|--7-7-7-7-7-7-7-7-7-7-10-10-10-10-10-10-10-10-10-10-7-7-7-7-7-7-7-7-7-7--|
   . . . . . . . . . . .  .  .  .  .  .  .  .  .  .  . . . . . . . . . .
|---------------------------------------------------------------|
|---------------------------------------------------------------|
|---------------------------------------------------------------|
|---------------------------------------------------------------|
|---------------------------------------------------------------|
|--8-8-8-8-8-8-8-8-8-8--10-10...(10 times)--11-11...--12-12...--|
   . . . . . . . . . .  .  .                .  .      .  .

   SYNTH TRANSPOSED TO GUITAR
|----------------------------------------------|
|----17----------------------------------------|
|-------16----16-19--16-19-17-16--17-----------|
|----------19-------------------------17-------|
|----------------------------------------19----|
|----------------------------------------------|

|--------------------------------------------------------|
|--------------------------------------------------------|
|----17-------16-19-16----------16-19-17-16-17-----------|
|----------17----------15-13-14-----------------17-------|
|-------19-----------------------------------------19----|
|--------------------------------------------------------|

Any corrections or suggestions :
                        => e-mail me  Pastor@Wanadoo.fr
Comments