Misanthrope - Futile Future Chords & Tabs

 

Futile Future Chords & Tabs

Misanthrope Chords & Tabs

Version: 1 Type: Tab 0 ratings
1 star 2 stars 3 stars 4 stars 5 stars
comments

Futile Future Tab

			MISANTHROPE - "FUTILE FUTURE"
	 		     Album "Visionnaire"

Transcribed by The Pastor from France

INTRO :
   GUITAR 1
|-------------------------------------------------------------------------|
|-------------------------------------------------------------------------|
|-------------------------------------------------------------------------|
|----7--9b/\-------------------------------------------10--12-----12--10--|
|---------------------------------7--8-7--10-------------------5----------|
|-------------------------------------------------------------------------|

   GUITAR 2 (First time)
|-------------------------------------------------------------------------|
|-------------------------------------------------------------------------|
|-----------------12-9----------------------------------------------------|
|--------7h9h10p7------12-9h10p9\7-------------9-10-12--10--12-----12--10-|
|-7h8h10---------------------------7--8-7--10------------------5----------|
|-------------------------------------------------------------------------|

   GUITAR 2 (Others time)
|--------------------------------------------------------------------------|
|--------------------------------------------------------------------------|
|------------------12-9----------------------------------------------------|
|----7------------------12-9h10p9\7------------9-10-12--10--12-----12--10--|
|-----------------------------------7--8-7--10------------------5----------|
|--------------------------------------------------------------------------|

RIFF 1 :
   GUITARS 1+2
|-------------------------------------------------|
|-------------------------------------------------|
|--2--2---------9-9-9--9---5--5-------------------|
|--2--2---------9-9-9--9---5--5---------5-5-5--5--|
|--0--0---0-0---7-7-7--7---3--3---3-3---5-5-5--5--|
|---------------------------------------3-3-3--3--|
          . .                     . .
[ Tab from: http://www.guitartabs.cc/tabs/m/misanthrope/futile_future_tab.html ]
   GUITAR 2 (Second time)
|-------------------------------------------------|
|-------------------------------------------------|
|-2--2---------9-9-9--9---5--5---12--10-----------|
|-2--2---------9-9-9--9---5--5----------12--10/12-|
|-0--0---0-0---7-7-7--7---3--3--------------------|
|-------------------------------------------------|


RIFF 2 :
   GUITARS 1+2
|------------------------------------------------------------------------------------|
|------------------------------------------------------------------------------------|
|------------------------------------------------------------------------------------|
|------------------------------------------------------------------------------------|
|-0-0-0-0---7--7-7---5--5-5---3-3-2-2-0-0------------8--8-8---7--7-7---5-5-3-3-----0-|
|-----------------------------------------3--3-3-3-----------------------------3-3---|
  . . . .      . .      . .   . . . . . . .  . . .      . .      . .   . . . . . .


SOLO BASS

SOLO DRUMS + BASS + SYNTH


RIFF 3 :
   GUITAR 1 + ACCOUSTIC
|--------------------------------------------|
|--------------------------------------------|
|------2------------------2----a.h-----------|
|------2----------7-------2----/7-5----------|
|------0-------5-----5----0---------7-8-7----|
|-----------3--------------------------------|


RIFF 4 :
   GUITAR 1 (I'm not sure of this one, too hard to hear)
|--------------------------------------------------------------|
|--------------------------------------------------------------|
|--------------------------------------------------------------|
|------2---3---2--------2---3---2------2---3---2--------4---5--|
|----3---3---3--------2---2---2------3---3---3--------5---5----|
|--5-----------------0-------------5----------------7----------|

   GUITAR 2						     LAST TIME :
|--------------|------------------|------------------------|----------------------------|
|--------------|------------------|------------------------|--------------------17--15--|
|----14--12----|------------------|----14--12----17--16----|--14--12----17--16----------|
|--------------|----------7-------|------------------------|----------------------------|
|--------------|-------5-----5----|------------------------|----------------------------|
|--------------|----3-------------|------------------------|----------------------------|

Any corrections or suggestions :
 			e-mail me  Pastor@Wanadoo.fr
Comments