Miranda Lambert - Over You Chords & Tabs

 

Over You Chords & Tabs

Miranda Lambert Chords & Tabs

Version: 4 Type: Chords 1 rating
1 star 2 stars 3 stars 4 stars 5 stars
comments

Over You Chords

   
    
     Hi there! I had a request to do a "cleaned up"
tab/chords of version #3.  I love this song so much, 
and chord placement is a biggie for me so I took the 
time to fix it. (Version 3 cannot be edited because 
it was submitted by a non- registered UG member.)
 
I watched Blake play it and these are the chords he 
uses.  I fixed chords here and there from v.3 but the 
picking part at the end is all me:) And credit for 
the basic D G D A goes to whoever submitted ver. 3! :)

*The (D)'s are optional, but that's how Blake plays it;)


      EADGBe
Asus4[x02230]
Em/D [022030]



STANDARD TUNING w/
CAPO ON 4


Intro picking-
e|-------------------------------------------------|
B|----------3------------------------3-------------|
G|------0-2-------0-2------------0-2------0-2------|
D|----4---------4-----2--0-----4--------4-----2----|
A|-------------------------------------------------|
E|-------------------------------------------------|

Intro-

*strum (some picking the 2nd time through)
D G  D Asus4  x2
*pick
D G  D Asus4  x2
*strum
D G  D Asus4  x2



D           G     D         Asus4
Weather man said, its gonna snow
D        G          D           Asus4 -once
By now I should, be used to the cold


D G  D Asus4


D       G              D     Asus4
Mid February shouldn't be so scary
       D      G
It was only December
D         Asus4                  
I still remember  
    Em/D            D       G       G -once
The presents... the tree... you and me



D               Asus4
  But you went away
   Em/D         
How  dare you?
 (D) G          D
 I   miss you
                  Asus4
They say I'll be okay
            Em/D     (D)             
But I'm not going to, 
G -once
Ever get over you


D G  D Asus4 x2


[ Tab from: http://www.guitartabs.cc/tabs/m/miranda_lambert/over_you_crd_ver_4.html ]
D       G     D            Asus4
Living alone, here in this place
D          G        D        Asus4 -once
I think of you, and I'm not afraid


D G  D Asus4


D             G       D            Asus4
Your favorite records make me feel better
       D         G
'Cause you sing along
     D     Asus4
With every song
           Em/D    D        G             G -once
I know you didn't, mean, to give them, to me



D               Asus4
  But you went away
   Em/D        
How  dare you?
 (D) G          D
 I   miss you
                  Asus4
They say I'll be okay
            Em/D    (D)         
But I'm not going to, 
G                 D G  D Asus4
Ever get over you


D G  D Asus4 


            Em/D*        Asus4*           
It's really sinks in, ya know, 
       G*         G* 
When I see it, in stone
                                                  
(picking)
       D               A              Em             G
e|--------------------------------------------------------3-3----|
B|------3--------------0h2--------------------------------3-3----|
G|----2---2---2------2-----2---2--------0---0---------0---0-0----|Go right into the D
D|--0-------0----------------2--------2---2---------0---0-0-0----|after these 2 strums 
A|-----------------0--------------------------------------2-2----|of the G
E|----------------------------------0-------------3-------3-3----|

  D                  Asus4        Em/D            G          D -back to strumming
    But  you  went  away       How  dare you?  I  miss you
            
                  Asus4
They say I'll be okay
            Em/D             
But I'm not going to, 
G -once            D G  D Asus4  D G  D Asus4 -once
Ever get over you



Have fun!!!
cristy♥twilight
Comments