Miranda Lambert - Kerosene Chords & Tabs

 

Kerosene Chords & Tabs

Miranda Lambert Chords & Tabs

Version: 1 Type: Chords 0 ratings
1 star 2 stars 3 stars 4 stars 5 stars
comments

Kerosene Chords

   
-----------------------------------------------------------------------
			     KEROSENE - Miranda Lambert
-----------------------------------------------------------------------
Tabbed by: Cheryl Wills
Email: chong_girl_420@yahoo.com

Tuning: Standard

This is my first tab if it isn't correct then e-mail me with some corrections
and I'll put them on here, also if you know the solo then I'll put it on here.
Thanks!

**After every line you play RIFF 1


RIFF 1
[ Tab from: http://www.guitartabs.cc/tabs/m/miranda_lambert/kerosene_crd.html ]
e|--3-3-3-0---3-3-3-0---3-3-0-4---4-4-4-4--|
B|--2-2-2-2---2-2-2-2---2-2-2-2---2-2-2-2--|   
G|--3-3-3-3---3-3-3-3---3-3-3-3---3-3-3-3--|
D|--0-0-0-0---0-0-0-0---0-0-0-0---0-0-0-0--|
A|-----------------------------------------|
E|-----------------------------------------|

INTRO:  Riff 1 4X

C	G	  
I'm waitin' on the sun to set cause yesterday ain't over yet  

C	G
I started smoking cigarettes there's nothing else to do I guess

A	G
Dusty roads ain't made for walking, spinning tires ain't made for stoppin'

A	C
I'm giving up on love cause love's given up on me
Comments