Mirage - Giving In Chords & Tabs

 

Giving In Chords & Tabs

Mirage Chords & Tabs

Version: 2 Type: Bass Tab 0 ratings
1 star 2 stars 3 stars 4 stars 5 stars
comments

Giving In Bass Tab

Intro

E--------3--------                            x2

Verse

G------------------------------------|         x2
D------------------------------------|
A-3-------5---------------3----5-----|
E-----------------3------------------|

Chorus
[ Tab from: http://www.guitartabs.cc/tabs/m/mirage/giving_in_btab_ver_2.html ]
G-----------------------------------------------------------|   x2
D-----------------------------------------------------------|
A-3-3-3-3-3-3-3-5-5-5-5-5-5-5---------------3-3-3-3-5-5-5-5-|
E-----------------------------3-3-3-3-3-3-3-----------------|

Interlude

G-----------------------------------------------------------------|x2
D-----------------------------------------------------------------|
A-5-5-5-5-3-3-3-3-5-5-5-5---------5-5-5-5-3-3-3-3---------3-3-3-3-|
E-------------------------3-3-3-3-----------------3-3-3-3---------|

Song Order

Intro x2
Verse x2
Chorus x2
Intro x1
Verse x2
Chorus x4
Intro x1
Interlude x2
Chorus x4
Introx x1
Comments