Minutemen - Viet Nam Chords & Tabs

 

Viet Nam Chords & Tabs

Minutemen Chords & Tabs

Version: 2 Type: Bass Tab 0 ratings
1 star 2 stars 3 stars 4 stars 5 stars
comments

Viet Nam Bass Tab

"Viet Nam" by The Minutemen
Tabbed by Badfrancis@aol.com

Intro:
G| -12--13--14----14--13--12--|
D| ---------------------------|
A| ---------------------------|
E| ---------------------------|
     Play this 2 Times then play...

G| ----------------------|
D| -12\slide down neck---|
A| ----------------------|
E| ----------------------|

Verse:    Play Four Times
G| ----7-----------------------|
D| ----------------------5h7---|
A| -5-----3--3-----------------|
E| -------------3--4--5--------|
[ Tab from: http://www.guitartabs.cc/tabs/m/minutemen/viet_nam_btab_ver_2.html ]
G| ----7-------------------------|
D| ------------------------------|
A| -5-----3--3-----------0-2-3---|
E| -------------5--4--3----------|

Chorus:
G| -------------------------|
D| ---------9--7---5--6--7--|
A| -7---9-------------------|
E| -------------------------|
     Play this four times then play...

G| ----------------------------------------------|
D| ----------------------------------------------|
A| ------------------------5--5--5--5----5s17s5--|
E| -5--5--5--5---5s17s5--------------------------|

Play Verse

Play Chorus

Outro:     Play Twice
G| -12--13--14----14--13--12---|
D| ----------------------------|
A| ----------------------------|
E| ----------------------------|


==================================================================

============
Comments