Minutemen - Sickles And Hammers Chords & Tabs

 

Sickles And Hammers Chords & Tabs

Minutemen Chords & Tabs

Version: 2 Type: Tab 0 ratings
1 star 2 stars 3 stars 4 stars 5 stars
comments

Sickles And Hammers Tab

Sickles and Hummers - Minutemen

--5--5--5--3--5--3--5--3-|
--5--5--5--3--5--3--5--3-|
-----7--4--4--------7--4-|  (2x)
-----------5-----------5-|
-------------------------|
-------------------------|
(not too sure about some of those chords there...)

-----------------------------------12-----------|
-12--15--14--12-14-12---15--14-12--12--15-14-15-|
-12--12--12--12-12-12---12--12-12---------------|
------------------------------------------------|
------------------------------------------------|
------------------------------------------------|
[ Tab from: http://www.guitartabs.cc/tabs/m/minutemen/sickles_and_hammers_tab_ver_2.html ]
-----------------------------------12-12-12-12-12-12-12-12-|
-12--15--14--12-14-12---15--14-12--12----------------------|
-12--12--12--12-12-12---12--12-12--------------------------|
-----------------------------------------------------------|
-----------------------------------------------------------|
-----------------------------------------------------------|

-12----------------------------|
----15-14-15-------------------|
----12-14-12-------------------|
-------------------------------|
-------------------------------|
-------------------------------|

---------12------------12-------|
-13--15--12----13--15--12-------|
-12--14--------12--14-----------|
--------------------------------|
--------------------------------|
--------------------------------|

----
-13-
-12-
---- (play this chord a few times)
----
----

Repeat from beginning, and end with a G5 chord on the bottom three strings with
some whammy instead of going to that last chord.

Tabbed by Phil from the NFC. Enjoy!
Comments