Minutemen - Punch Line Chords & Tabs

 

Punch Line Chords & Tabs

Minutemen Chords & Tabs

Version: 1 Type: Bass Tab

Punch Line Bass Tab

This is a TUNE!! I think the Punch Line is my favorite record produced by the minutemen, 
absoloutly awsome.

G-----------------------------------------------|
D-000--7--000--5--000--4--000--2----------------|
A-----------------------------------------------|
E-----------------------------------------------|

This riff is repeated a number of times

And then onto this sicko riff...[Mike Watt = genious]
[ Tab from: http://www.guitartabs.cc/tabs/m/minutemen/punch_line_btab.html ]
G---7--4------------------------------------------|
D---------7--4------------------------------------|
A---------------7--5------------------------------|
E-------------------------------------------------|

Play this^^ bit twice then [below] to finish

G-----------------------------------------------|
D-----------------------------------------------|
A--555555----0000000----------------------------|
E-----------------------------------------------|