Minutemen - Maybe Partying Will Help Chords & Tabs

 

Maybe Partying Will Help Chords & Tabs

Minutemen Chords & Tabs

Version: 1 Type: Bass Tab 0 ratings
1 star 2 stars 3 stars 4 stars 5 stars
comments

Maybe Partying Will Help Bass Tab

-------------------------------------------------------------------------------
			     Maybe partying will help- The Minutemen
-------------------------------------------------------------------------------

Tabbed By : Todd andrews
e-mail: dumb_bell50@hotmail.com

Tuning:standard

Intro/verse
G|--7-5-7-------7-5-7----7-5-------------------------------------------------|
D|---------------------------5-7-5-6-----------------------------------------|
A|---------------------------------------------------------------------------|
E|---------------------------------------------------------------------------|
[ Tab from: http://www.guitartabs.cc/tabs/m/minutemen/maybe_partying_will_help_btab.html ]
Chorus
G|------14-12-1214-----14-12-1214--------------------------------------------|
D|----------------14-------------14------------------------------------------|
A|-12-12-------------12------------------------------------------------------|
E|---------------------------------12-10-7-----------------------------------|

Outro/3rd verse
G|-------9--7----------------------------------------------------------------|
D|-5-6-------------7-5-4-----------------------------------------------------|
A|----5-7--5-----------------------------------------------------------------|
E|------------7-5-7----------------------------------------------------------|

If you have any questions or you just want to talk about the minute men, email
me at dumb_bell50@hotmail.com. Please make sure to contact me if their is
anything that i have missed.thanks
Comments